Song name
# A B C D E F G H I J K L M N O P Q R S T U V W X Y Z

Arctic Monkeys - Matador tab

Band: Arctic Monkeys
Song: Matador
Album: Favourite Worst Nightmare (Japanese Edition)
Tuning: Standard
Tabbed by: Ollie Milton. whatareyoucrips@hotmail.co.uk
Site: www.myspace.com/heteroface

e|7^-||
B|10^||
G|---||
D|---||
A|---||
E|---||

Cookie's Intro
e|-----------------------------------------------------||
B|-----------------------------------------------------||
G|------------------------------------------------666--||
D|--------------------------------------------666------||
A|-------------55555555-11111111-444444444444----------||
E|333333333333-----------------------------------------||

Alex's Lead Part

e|-----------------------------||
B|15-11-14-10-13-8-11----------||
G|--------------------6----666-||
D|----------------------666----||
A|-----------------------------||
E|-----------------------------||

e|------------------------||
B|------------------------||
G|7---7---7---7/10-7----7-||
D|--5---5---5--------10---||
A|------------------------||
E|------------------------||

You get the basic idea of how many times you play each note if you play along to it.

Bridge:
e|----------------||
B|----------------||
G|----------------||
D|----------------||
A|-----5-5-----3-3||
E|3-3------4-4----||

e|---------------------------||
B|---------------------------||
G|---------------------------||
D|---------------------------||
A|---------------------------||
E|15 slide down to 3 (improv)||

Other bridge:

e|------------------||
B|------------------||
G|------------------||
D|------------------||
A|-----454-----333--||
E|3333-----444-----4||

e|------------||
B|33-66-44-77-||
G|44-77-55-88-||
D|55-88-66-99-||
A|55-88-66-99-||
E|------------||

Or something like that.

Please rate us
Tap to rate this tab
# A B C D E F G H I J K L M N O P Q R S T U V W X Y Z