Song name
# A B C D E F G H I J K L M N O P Q R S T U V W X Y Z

Arctic Monkeys - All My Own Stunts tab

All My Own Stunts - Arctic Monkeys

Intro:

e|----|
H|-2~-|
G|-2~-|
D|-2~-|
A|-0~-|
E|----|

e|-----------------------------------------|
H|-12p-10----12p-10----12p-10----12p-10----|
G|--------11--------11--------11--------11-|   Few Times
D|-----------------------------------------|
A|-----------------------------------------|
E|-----------------------------------------|

One, Two, Three

e|--------------------|
H|--------------------|
G|-------------11-11--|
D|-------------11-11--|
A|-------------9--9---|
E|-3-3-3-3/2----------|



Ahhhaa

One, Two, Three, Four

e|-------------------------------------|
H|-------------------------------------|
G|-12-12-12-12-11--11-11--11-11--11-11-|
D|-12-12-12-12-11--11-11--11-11--11-11-|
A|-10-10-10-10/9---9--9---9--9---9--9--|
E|-------------------------------------|

e|-------------------------------------|
H|-------------------------------------|
G|-12-12-12-12-11--11-11--11-11--11-11-|
D|-12-12-12-12-11--11-11--11-11--11-11-|
A|-10-10-10-10/9---9--9---9--9---9--9--|
E|-------------------------------------|


Caricatures of your wrecking ball down 
In my mind all the time
I wanna be in that damsel-patterned alley
Where you go for a smoke

And sorrow slow dances
The phones are lining up
Taking no chances
Close but never close enough


Refrain:


Been watching cowboy films
On gloomy afternoons
Tinting the solitude
Put on your dancing shoes
And show me what to do
I know you've got the moves


Solo:
e|---------------------------------------|
H|---------------------------------------|
G|---------------------------------------|
D|------11-9-11-7--5-5-5-5/7--5-7-5---4~-|
A|-7-9------------------------------7----|
E|---------------------------------------|


All my own stunts
Hiding has changed its tune
Linking arms, syncing hearts

And sorrow slow dances
Around the edges of her eyes
Taking no chances
The last one out to win a prize

Refrain: 

Been watching cowboy films
On gloomy afternoons
Tinting the solitude
Put on your dancing shoes
And show me what to do
I know you've got the moves
Tap to rate this tab
 
# A B C D E F G H I J K L M N O P Q R S T U V W X Y Z