Song name
# A B C D E F G H I J K L M N O P Q R S T U V W X Y Z

Arctic Monkeys - Snap Out Of It tab

SONG NAME Snap Out of It- Band Name Arctic Monkeys
-------------------------------------------------------------------------------
Tabbed by:James Longhorn
E-mail:JTLonghorn@gmail.com

Tuning:Standard

verse:palm muted apart from full chord which is a sharp up stroke
x2
e|-------------------1--------------------1-|
B|-------------------1--------------------1-|
G|-------------------1--------------------1-|
D|-3-3--2-2--3-3--2-23--3-3--2-2--3-3--2-23-|
A|-3-3--3-3--3-3--3-33--3-3--3-3--3-3--3-33-|
E|-1-1--1-1--1-1--1-11--1-1--1-1--1-1--1-11-|

e|-------------------1--------------------1-|
B|-------------------2--------------------2-|
G|-3-3--2-2--1-1--0-03--3-3--2-2--1-1--0-03-|
D|-3-3--3-3--3-3--3-33--3-3--3-3--3-3--3-33-|
A|-1-1--1-1--1-1--1-11--1-1--1-1--1-1--1-11-|
E|------------------------------------------|

e|-------------------1-------------------------|
B|-------------------2------------1------------|
G|-3-3--2-2--1-1--0-03--3-3--2-2--0------------|
D|-3-3--3-3--3-3--3-33--3-3--3-3--2------------|
A|-1-1--1-1--1-1--1-11--1-1--1-1--3------------|
E|---------------------------------------------|

Chorus: palm muted, release palm muting for sharp up stroke (same rhythm as verse)

C#
I wanna grab both your shoulders and shake baby,
Fm             G#
snap out of it
C#
I get the feeling I left it too late but baby,
Fm.            G#
snap out of it
C#
if that watch don't continue to swing, or the fat
Fm.          G#
lady fancies having a sing, I'll be here
C#
Waiting ever so patiently, for you to
C     Bbm  G#  G Fm
Snap. Out. Of. It
Tap to rate this tab
# A B C D E F G H I J K L M N O P Q R S T U V W X Y Z