Song name
# A B C D E F G H I J K L M N O P Q R S T U V W X Y Z

Arcturus - Alone tab

Arcturus
Alone
La masquerade infernale
by David Clément 
Grind! (wah)
|--------------------------------------------------------------|
|--------------------------------------------------------------|
|--9--9--9----9-9--9----9-9-9---99-9---------------------------|
|--------------------------------------------------------------|
|--------------------------------------------------------------|
|--------------------------------------------------------------|

|--------------------------------------------------------------|
|--------------------------------------------------------------|
|--7---9-10-9---7---9-10-9-------------------------------------|
|--------------------------------------------------------------|
|--------------------------------------------------------------|
|--------------------------------------------------------------|  (my sorrow...)

|--------------------------------------------------------------|
|--------------------------------------------------------------|
|--------------------------------------------------------------|
|---7-------5-------4------5------7----------------------------|
|---7-------5-------4------5------7----------------------------|
|---5-------3-------2------3------5----------------------------|

this one is incomplete
|--------------------------------------------------------------|
|--------------------------------------------------------------|
|--------------------------------------------------------------|
|--9-----7--9--10--10--9---------------------------------------|
|--7-777-------------------------------------------------------|
|--------------------------------------------------------------|
Tap to rate this tab
 
# A B C D E F G H I J K L M N O P Q R S T U V W X Y Z