Guitaretab - guitar tabs
Song name
# A B C D E F G H I J K L M N O P Q R S T U V W X Y Z

Arkham - Better Than Me tab

Intro/verse :
e----------------------------------------------------------------|
b-----5---5-----5------5---5-----5------3---3---3--33/5(5)-------|
g----2---5-----2--------------------------------xxx-------------|(4x)
d---0---------0------5---------5------3---------3--33/5----------|
a------------------3-----3---3------1-----1---1-1--11/3----------|
E----------------------------------------------------------------|

Pre-Chorus :
e-------------|
b-------1-----|
g-7--3--0-----|
d-7--3--2-----|
a-5--1--3-----|
E-------------|

Chorus :
e-----------------------|
b-----------------------|
g-7--3--7--5--7--3--5---|
d-7--3--7--5--7--3--5---|
a-5--1--5--3--5--1--3---|
E-----------------------|
[ Tab from: http://www.guitaretab.com/a/arkham/51783.html ]
Repeat intro 2x

Verse 2 :
e----------------------------------------------|
b-------------------------3---3---3--33/5(5)---|
g-7-5-3-----------7-5-------------x--xx--------|
d-7-5-3-(3x)then--7-5---3---------3--33/5------|
a-5-3-1-----------5-3-1-----1---1-1--11/3------|
E----------------------------------------------|

Repeat Pre-chorus
Repeat Chorus

Bridge :
e-------------------------------|
b-------------------------------|
g----3-----5--------------------|
d-5--3--3--5-(2x)then-77777777--|
a-5--1--3--3----------77777777--|
E-3-----1-------------55555555--|

Repeat Chorus 2x

Outro :
e----------------|
b----------------|
g-7--3--5--------|
d-7--3--5(4x)---|
a-5--1--3--------|
E----------------|


:)