Song name
# A B C D E F G H I J K L M N O P Q R S T U V W X Y Z

Armchair Cynics - Bang tab

Artist : Armchair Cynics
Song   : Bang
Album  : Killing the Romance
Tuning : Drop D

Once again, nobody had tabbed it out, so I thought I'd try. I hope
it sounds good.

Intro Palm Muting
Break the skin cause I can't tell where your body ends and mine begins...
e|-------------------------------------------------------| x3
B|-------------------------------------------------------|
G|--77777777777777777777----99999999999999999999---------|
D|-------------------------------------------------------| 
A|-------------------------------------------------------|
D|-------------------------------------------------------| (part 1)

e|-------------------------------------------------------| x12
B|-------------------------------------------------------|
G|--7--5--7-------7--5--7--------------------9b10-9b10-9-|
D|-----------5h7-----------5h7---end-w/-this-------------|
A|-------------------------------------------------------|
D|-------------------------------------------------------| (part 2)


You manifest you bring things to be and your mojo witchcraft...
e|------8-----------------------| x2
B|------6-----------------------|
G|------5-----------------------|
D|--0-------3------8------------| 
A|--0-------3------8------------|
D|--0-------3------8------------| (part 3)

Oh I go off like a gun like a loaded weapon bang, bang, bang...
e|-------------------------| x2
B|-------------------------|
G|-------------------------|
D|--0------3-------8-------|
A|--0------3-------8-------|
D|--0------3-------8-------| (part 4)

So here we go again it echoes in my head bang, bang, bang...
e|-------------------------|
B|-------------------------|
G|-------------------------|
D|--0------5-------8-------|
A|--0------5-------8-------|
D|--0------5-------8-------|

e|----------------------|
B|----------------------|
G|------5---------------|
D|--0---5---5---8-------|
A|--0---3---5---8-------|
D|--0-------5---8-------| (part 5)

Song Order 1.(part 1)/(part 2)
           2.(part 3)
           3.(part 4)
           4.(part 1)/(part 2)
           5.(part 3)
           6.(part 4)
           7.(part 5)
Tap to rate this tab
# A B C D E F G H I J K L M N O P Q R S T U V W X Y Z