Arnocorps - Predator tab

Arnocorps - Predator

skyturnedred@gmail.com

EADGBe 

. = palm mute
/ = slide up
\ = slide down


Riff 1

|---------------------------------------------------|
|---------------------------------------------------|
|---------------------------------------------------|
|-3-4-22----------3-4-22-----3-4-22---------3-4-22--|
|-3-4-22----------3-4-22-----3-4-22---------3-4-22--|
|-1-2-00--000000--1-2-00-----1-2-00-000000--1-2-00--|
          ......                    ......

"There's something out
 there waiting for us,
 and it aint' no man!"

Riff 2

                   x3 
|--------------------|------------------------|
|--------------------|------------------------|
|--------------------|------------------------|
|--------------------|---------------------3--|
|------4\3-------4\3-|------4\3-------4\3--3--|
|-1111-2\1--1111-2\1-|-1111-2\1--1111-2\1--1--|
  ....      ....       ....      ....


Riff 3
|-------------------------------|
|-------------------------------|
|-4-----4-----7-----------------|
|-4-----4-----7--5-----5-----7--|
|-2-222-2-222-5--5-----5-----7--|
|----------------3-333-3-333-5--|
    ...   ...      ...   ...



Riff 4

|--------------------------------------------|
|--------------------------------------------|
|-44444444-55555555-9-----9-999--9-----9-999-|
|-44444444-55555555-9-----9-999--9-----9-999-|
|-22222222-33333333-7-777-7-777--7-777-7-777-|
|--------------------------------------------|
                      ...          ...

|------------------------------------------------|
|------------------------------------------------|
|-44444444-55555555-9-----12-11-9-----9-----7-99-|
|-44444444-55555555-9-----12-11-9-----9-----7-99-|
|-22222222-33333333-7-777-10--9-7-777-7-777-5-77-|
|------------------------------------------------|
                      ..          ...   ...


Riff 3
RIff 4
Riff 3
Riff 4


Riff 5 (solo)

|-----------------------------------------------------------|
|-----------------------------------------------------------|
|-----------------------------------------------------------|
|-9---9--9-9-7---7--7-7-9---9--9-9--12-12-12-11--11-12-11-9-|
|-----------------------------------------------------------|
|-----------------------------------------------------------|

|--------------------------------------------------------------|
|--------------------------------------------------------------|
|--------------------------------------------------------------|
|-11h12p11------11h12p11-9--11h12p11--14-14-14-14-12--11-12-11-|
|----------12--------------------------------------------------|
|--------------------------------------------------------------|

|----------------------------------------------------|
|----------------------------------------------------|
|----------------------------------------------------|
|-9--------11-12-11-9----11--12---/14-12-11-9--------|
|----------------------------------------------------|
|----------------------------------------------------|


Riff 5 (Rhythm)

|-----------------------------------|
|-----------------------------------|
|-----------------------------------|
|-------------------------------9-7-| x2
|-9--9-99-7--7-77--9--9-99--5---7-5-|
|-7--7-77-5--5-55--7--7-77--333-----|
                             ..

|-------------------------------------------|
|-------------------------------------------|
|--------------------------------------9-7--|
|----9----9----7----7----9----9--5-----9-7--| x4
|----9----9----7----7----9----9--5-----7-5--|
|-77-7-77-7-55-5-55-5-77-7-77-7--3-33-------|
  ..   ..   ..   ..   ..   ..      ..

|--------------------------------------|
|--------------------------------------| "If it bleeds we can kill it!" 
|---------------------------------9-7--|
|-99999999-77777777-99999999-5555-9-7--| x2
|-99999999-77777777-99999999-5555-7-5--|
|-77777777-55555555-77777777-3333------|



Riff 4 x2

---
We're a rescue team, not assassins!
Tap to rate this tab
 
# A B C D E F G H I J K L M N O P Q R S T U V W X Y Z