Song name
# A B C D E F G H I J K L M N O P Q R S T U V W X Y Z

Arsenal - Switch tab

----------------------------------------------------------------------------
			     Switch - Arsenal
----------------------------------------------------------------------------
Tabbed by:Nicky Degheselle
Email:Nikskeopnieuwonline1@hotmail.com

Tuning:standard

intro:

e|-------------------------------------------------------------------------|
B|-------------------------------------------------------------------------|
G|-------------------------------------------------------------------------|
D|--12-121212-121212-121212-121212-121212-1212/9-999-999-999---------------|
A|--12-121212-121212-121212-121212-121212-1212/9-999-999-999---------------|
E|--10-101010-101010-101010-101010-101010-1010/7-777-777-777---------------|
     d d u d  d u d  d u d  d u d  d u d  d u  d dud dud dud

verse:

e|-------------------------------------------------------------------------|
B|-------------------------------------------------------------------------|
G|------------------44-44-4--555/77----------------------------------------|
D|--55-55-5-22-22-2-44-44-4--555/77----------------------------------------|
A|--55-55-5-22-22-2-22-22-2--333/55----------------------------------------|
E|--33-33-3-00-00-0--------------------------------------------------------|
    dd dd d dd dd d dd dd d  dud dd

chorus: 
e|-------------------------------------------------------------------------|
B|-------------------------------------------------------------------------|
G|-------4----5----7-------------------------------------------------------|
D|--2----4-x8-5-x8-7-x8----------------------------------------------------|
A|--2-x8-2----3----5-------------------------------------------------------|
E|--0----------------------------------------------------------------------|

that's it!
i'm not 100% sure of the chorus but it works...grtz

| u  upstroke
| d  downstroke
| /  slide up
| \  slide down
| h  hammer-on
| p  pull-off
| ~  vibrato
| +  harmonic
| x  Mute note
Tap to rate this tab
 
# A B C D E F G H I J K L M N O P Q R S T U V W X Y Z