Song name
# A B C D E F G H I J K L M N O P Q R S T U V W X Y Z

Artcell - Tomake tab

Tomake: Artcell  /  Aniket Prantor


Tomake aalo bhebe
--------------------------------0-------------------------------------------|
--------------------------------------------------------2--------3----------|
--2----------4/6----4----------------2--------------------2--------2--------|
-------0------------------2-------------------------------------------------|
--0------------------4---------------------------------5--------------------|
----------------------------------------------------------------------------|


Chokh cheye thekechi aadhare
------------------------------0----------------------------------------------------|
-----------------------------------------------------------------------------0-----|
--2--------4/6-----4-------------2------------------------2\1--------1-------------|
------0-----------------2------------------------------4----------0----------------|
--0----------------4-------------------------------4-------------------------------|
------------------------------------------------2----------------------------------|


Nirob theke
--------------------------------0----------------------4h5\2--0---------------|
------------------------------------------------------------------------------|
--2----------4/6----4----------------2----------------------------------------|
-------0------------------2---------------------------0-----------------------|
--0------------------4--------------------------------------------------------|
------------------------------------------------------------------------------|

Dekhechi amar eka nirjoney
------------------------------0----------------------------------------------------|
-----------------------------------------------------------------------------0-----|
--2--------4/6-----4-------------2------------------------2\1--------1-------------|
------0-----------------2------------------------------4----------0----------------|
--0----------------4-------------------------------4-------------------------------|
------------------------------------------------2----------------------------------|

Tomake jokhoni cheyechi shottar ontoraley
-----------------------------------------------------------------------------------|
-------10--------10---------10-------10----------10--------10---------10-------10--|
-------------9---------------------9----------------------9---------------------9--|
--7--------------------------------------------7-----------------------------------|
-------------------------7--------------------------------------------7------------|
-----------------------------------------------------------------------------------|

shonggoponey
--------------------------------------------------------------------------------------|
------10-------10--------10-------10---------10-------10--------10-------10-----------|
------------9-------------------9---------------------9-------------------9-----------|
--0-----------------------------------------0-----------------------------------------|
----------------------0------------------------------------------0--------------------|
--------------------------------------------------------------------------------------|


Tokhoni jenechi aalo hoye acho tumi
---------------------------------------------------------------------------------|
------10--------10---------10--------10---------10-------10---------10-------10--|
-------------9---------------------9----------------------9-------------------9--|
---------------------------------------------------------------------------------|
--9-------------------------------------------9----------------------------------|
-----------------------9---------------------------------------------9-----------|


Amar aadharey
--------------------------------------------------------------------------------------|
------10-------10--------10-------10---------10-------10--------10-------10-----------|
------------9-------------------9---------------------9-------------------9-----------|
--0-----------------------------------------0-----------------------------------------|
----------------------0------------------------------------------0--------------------|
--------------------------------------------------------------------------------------|
Tap to rate this tab
# A B C D E F G H I J K L M N O P Q R S T U V W X Y Z