Song name
# A B C D E F G H I J K L M N O P Q R S T U V W X Y Z

Articolo 31 - Gente Che Spera tab

e-------------------------------------|
B-------------------------------------|
G-------------------------------------|
D-------------------------------------|
A--0-0--5-7-8-8--7-5----------------5-|
E--------------------8-8--3-3-3-5h7---|

e-----------------------------------------|
B-----------------------------------------|
G-----------------------------------------|
D-----------------------------------------|
A-0-0--5-7-8-8--7-5---7-------------------|
E-------------------8---8--3-3-3-7-5-3----|

I think the guitar part sounds like this. Easy song.
Tap to rate this tab
 
# A B C D E F G H I J K L M N O P Q R S T U V W X Y Z