Song name
# A B C D E F G H I J K L M N O P Q R S T U V W X Y Z

Artillery - Dont Believe tab

-----------------------------------------------------------------
|                                                               |
|          Artillery - By Inheritance - Don't Believe           |
|                                                               |
-------------------------Baule's TAB-----------------------------

...not yet finished..some riffs & speed guitar solo missed

Tablature Legend
----------------
 h   - hammer-on
 p   - pull-off
 M   - palm muting
 x   - muted slash
 ^   - bend
 /\  - slide into or out


--------0-------------------------------0-------------------------|
------1---0h1-3p1-----3-1---1---1-----1---0h1-3p1-----3-1---------|
----2-------------0-4-----2---4-----2-------------0-4-----2-0-4-0-|
------------------------------------------------------------------|
--0-------------------------------0-------------------------------|
------------------------------------------------------------------|

--------0-------------------------------0-------------------------|
------1---0h1-3p1-----3-1---1---1-----1---0h1-3p1-1/3-3/6-6\4-4\3-|
----2-------------0-4-----2---4-----2-------------2/4-4/7-7\5-5\4-|
------------------------------------------------------------------|
--0-------------------------------0-------------------------------|
------------------------------------------------------------------|


-----------------------------------------------------------------|
-----------------------------------------------------------------|
-----0-------7-------0-------5-------0-------7-------0-------5---|
---7---7---5---5---4---4---3---3---7---7---5---5---4---4---x---3-|
-5-------3-------2-------1-------5-------3-------2-------1-------|
-----------------------------------------------------------------|


-----------------------------------------------------------------|
-----------------------------------------------------------------|
-----------------------------------------------------------------|
-3-3-3-3-3-3-3-3-3-3-3-3-3-3-3--------------3-3-------5-3-3-3----|
-1-1-1-1-1-1-1-1-1-1-1-1-1-1-1-5-------5^-x-0-1-1-1-1-3-1-0-1----|
-------------------------------3-3-3-3----x----------------------|
   M M M   M M M   M M   M M     M M M          M M M


-----------------------------------------------------------------|
-----------------------------------------------------------------|
------------------------5----------------------------------------|
--------------3-3-------3-5-3--------------3-3-------5-3-3-3-----|
-5-------5^-x-0-1-1-1-1---3-1-5-------5^-x-0-1-1-1-1-3-1-0-1-----|
-3-3-3-3----x-----------------3-3-3-3----x-----------------------|
   M M M          M M M         M M M          M M M


----------------------------------------------------------------|
----------------------------------------------------------------|
----------------------------------------------------------------|
--------------3-3-------5---------------------------------------|
-5-------5^-x-0-1-1-1-1-3---------------------------------------|
-3-3-3-3----x---------------------------------------------------|
   M M M          M M M

Intermezzo Solo #1

 ------->    ------->             -------------------------------|
-------12-17-------12-17-12-------------12-15-13-12--------------|
----13----------13----------13-------13-------------15-13-12-13--|
-14----------14----------------14-14-----------------------------|
-----------------------------------------------------------------|
-----------------------------------------------------------------|
-----------------------------------------------------------------|

-17-------------------------------------------------------------|
----13----------------------------------------------------------|
----------------------------------------14----14----------------|
-------------------12-------12-14-14-14^---14^---14-12----12----|
-------14h15-14-15----14-15----------------------------15-------|
----------------------------------------------------------------|

Intermezzo Solo #2

12-12-12-13-13-15-15^-15-13_12----12-12-----------------------------15^----|
-------------------------------15-------15-15^-9/12-13-15-15^-13-12--------|
------------------------------------------------------------------------14-|
---------------------------------------------------------------------------|
---------------------------------------------------------------------------|
---------------------------------------------------------------------------|
Tap to rate this tab
 
# A B C D E F G H I J K L M N O P Q R S T U V W X Y Z