Song name
# A B C D E F G H I J K L M N O P Q R S T U V W X Y Z

Artist Vs Poet - Stay Strong tab

Artist Vs Poet - Stay Strong

Intro:
     Em7   D/F#      G     Cadd9
e|---3-----3---2h3---3-----3------|
B|---3-----3---------3-----3------|
G|---0-----2---------0-----0------|
D|---2-----0---------0-----0------| 2X
A|---2-----0---------x-----3------|
E|---0-----2---------3-----x------|

Verse/Chorus: 
     Em7   D/F#      G     Cadd9
e|---3-----3--2h3----3-----3------|
B|---3-----3---------3-----3------|
G|---0-----2---------0-----0------|
D|---2-----0---------0-----0------|  2X
A|---2-----0---------x-----3------|
E|---0-----2---------3-----x------|

     Em7   D/F#      G  G/B Cadd9
e|---3-----3--2h3----3--3---3------|
B|---3-----3---------3--3---3------|
G|---0-----2---------0--0---0------|
D|---2-----0---------0--0---0------|
A|---2-----0---------x--2---3------|
E|---0-----2---------3--x---x------|

     Em7   D/F#      G     Cadd9
e|---3-----3--2h3----3-----3------|
B|---3-----3---------3-----3------|
G|---0-----2---------0-----0------|
D|---2-----0---------0-----0------|
A|---2-----0---------x-----3------|
E|---0-----2---------3-----x------|

Outro:
     Em7    D/F#    G      Cadd9
e|-------3------3-------3-----------|
B|-------3------3-------3-----------|
G|-------0------2-------0--------0~~|
D|-----2------0-------0------0h2----|
A|------------------x------3--------|
E|---0------2-------3------x--------|

     Em7    D/F#    G       Cadd9
e|-------3------3-------3---3~--|
B|-------3------3-------3---3~--|
G|-------0------2-------0---0~--|
D|-----2------0-------0-----2~--|
A|------------------x-------3~--|
E|---0------2-------3-------x~--|
Tap to rate this tab
# A B C D E F G H I J K L M N O P Q R S T U V W X Y Z