Song name
# A B C D E F G H I J K L M N O P Q R S T U V W X Y Z

As Daylight Fades - Enemies tab

-------------------------------------------------------------------------------
                             ENEMIES - As Daylight Fades
-------------------------------------------------------------------------------


Tuning: Drop A#

INTRO

Rhythm: x2

e|---------------------------------------------------------------------------|
B|-----------------------------------------------------t=10-----w=12---------|
G|---------------------------------------------------------------------------|
D|---------------------------------------------------------------------------|
A|-5555-5555-5-55558888-8888-8-88883333-3333-3-3333tttt-tttt-t-twww----------|
E|-5555-5555-5-55558888-8888-8-88883333-3333-3-3333tttt-tttt-t-twww----------|

Lead: x8

e|---------------------------------------------------------------------------|
B|---------------------------------------------------------------------------|
G|-9h10p9-------7/10-14p10h14p10h12p10h12p10---------------------------------|
D|--------10-10--------------------------------------------------------------|
A|---------------------------------------------------------------------------|
E|---------------------------------------------------------------------------|

VERSE

Rhythm & Lead:

e|---------------------------------------------------------------------------|
B|---------------------------------------------------------------------------|
G|---------------------------------------------------------------------------|
D|-------2h3p2-------------------------------2h3p2---------------------------|
A|-------------3----------7h10p7-5h8p5-------------3/5-------7h10p7-8h12p8---|
E|-0~-00---------0~-000-0--------------0~-00-----------000-0-----------------|
      ..            ...                   ..           ...
e|---------------------------------------------------------------------------|
B|---------------------------------------------------------------------------|
G|---------------------------------------------------------------------------|
D|-------2h3p2-------------------------------2h3p2---------------------------|
A|-------------3----------7h10p7-5h8p5-------------3/5-5-5-5-7h10p7-8h12p8---|
E|-0~-00---------0~-000-0--------------0~-00---------------------------------|
      ..            ...                   ..

e|---------------------------------------------------------------------------|
B|---------------------------------------------------------------------------|
G|---------------------------------------------------------------------------|
D|-------2h3p2-------------------------------2h3p2---------------------------|
A|-------------3----------7h10p7-5h8p5-------------3/5-------7h10p7-8h12p8---|
E|-0~-00---------0~-000-0--------------0~-00-----------000-0-----------------|
      ..            ...                   ..           ...
e|---------------------------------------------------------------------------|
B|---------------------------------------------------------------------------|
G|---------------------------------------------------------------------------|
D|-------2h3p2-------------------------------2h3p2---------------------------|
A|-------------3----------7h10p7-5h8p5-------------3/5~---7--------5---------|
E|-0~-00---------0~-000-0--------------0~-00------------0---10-7/8---8-------|
      ..            ...                   ..

POST VERSE

Rhythm: 

e|---------------------------------------------------------------------------|
B|---------------------------------------------------------------------------|
G|---------------------------------------------------------------------------|
D|-0~~~----------------------------------------------------------------------|
A|-0~~~----------------------------------------------------------------------|
E|-0~~~----------------------------------------------------------------------|

Lead:

e|-----------00000000--------------------------------------------------------|
B|-----55555566666666--------------------------------------------------------|
G|-----99999999999999--------------------------------------------------------|
D|---------------------------------------------------------------------------|
A|---------------------------------------------------------------------------|
E|---------------------------------------------------------------------------|

PRE CHORUS

Rhythm: x4

e|---------------------------------------------------------------------------|
B|---------------------------------------------------------------------------|
G|---------------------------------------------------------------------------|
D|---------------------------------------------------------------------------|
A|---------------------------------------------------------------------------|
E|-0-0000-0000-0000-0-0-0000-0000-0000-0-------------------------------------|
   . .... .... .... . . .... .... .... .

Lead: x2

e|------0~~~~---------------------0~~~~--------------------------------------|
B|-6~~~~---------------------6~~~~-------------------------------------------|
G|---------------------------------------------------------------------------|
D|-----------7~~~~8~~~~----------------7~~~~~~~~-----------------------------|
A|---------------------------------------------------------------------------|
E|----LET-EVERYTHING-RING-OUT------------------------------------------------|

CHORUS

Rhythm: x2

e|---------------------------------------------------------------------------|
B|---------------------------------------------------------------------------|
G|---------------------------------------------------------------------------|
D|-0000000000000000-3333333333333333-tttttttttttttttt-88888888tttttttt-------|
A|-0000000000000000-3333333333333333-tttttttttttttttt-8888888888888888-------|
E|-0000000000000000-3333333333333333-tttttttttttttttt-8888888877777777-------|

Lead: x2

e|-------13----------------13----------------13------------------------------|
B|-10-11----11-10-11-10-11----11-10-11-10-11----11-10-11-/13-11-10-/11-10----|
G|------------------------------------------------------------------------12-|
D|---------------------------------------------------------------------------|
A|---------------------------------------------------------------------------|
E|----LET-EVERYTHING-RING-OUT------------------------------------------------|


INTRO

Rhythm: x1

e|---------------------------------------------------------------------------|
B|-----------------------------------------------------t=10-----w=12---------|
G|---------------------------------------------------------------------------|
D|---------------------------------------------------------------------------|
A|-5555-5555-5-55558888-8888-8-88883333-3333-3-3333tttt-tttt-t-twww----------|
E|-5555-5555-5-55558888-8888-8-88883333-3333-3-3333tttt-tttt-t-twww----------|

Lead: x4

e|---------------------------------------------------------------------------|
B|---------------------------------------------------------------------------|
G|-9h10p9-------7/10-14p10h14p10h12p10h12p10---------------------------------|
D|--------10-10--------------------------------------------------------------|
A|---------------------------------------------------------------------------|
E|---------------------------------------------------------------------------|

VERSE

Rhythm & Lead:

e|---------------------------------------------------------------------------|
B|---------------------------------------------------------------------------|
G|---------------------------------------------------------------------------|
D|-------2h3p2-------------------------------2h3p2---------------------------|
A|-------------3----------7h10p7-5h8p5-------------3/5-------7h10p7-8h12p8---|
E|-0~-00---------0~-000-0--------------0~-00-----------000-0-----------------|
      ..            ...                   ..           ...
e|---------------------------------------------------------------------------|
B|---------------------------------------------------------------------------|
G|---------------------------------------------------------------------------|
D|-------2h3p2-------------------------------2h3p2---------------------------|
A|-------------3----------7h10p7-5h8p5-------------3/5-5-5-5-7h10p7-8h12p8---|
E|-0~-00---------0~-000-0--------------0~-00---------------------------------|
      ..            ...                   ..

e|---------------------------------------------------------------------------|
B|---------------------------------------------------------------------------|
G|---------------------------------------------------------------------------|
D|-------2h3p2-------------------------------2h3p2---------------------------|
A|-------------3----------7h10p7-5h8p5-------------3/5-------7h10p7-8h12p8---|
E|-0~-00---------0~-000-0--------------0~-00-----------000-0-----------------|
      ..            ...                   ..           ...
e|---------------------------------------------------------------------------|
B|---------------------------------------------------------------------------|
G|---------------------------------------------------------------------------|
D|-------2h3p2-------------------------------2h3p2---------------------------|
A|-------------3----------7h10p7-5h8p5-------------3/5~---7--------5---------|
E|-0~-00---------0~-000-0--------------0~-00------------0---10-7/8---8-------|
      ..            ...                   ..

CHORUS

Rhythm: 

e|---------------------------------------------------------------------------|
B|---------------------------------------------------------------------------|
G|---------------------------------------------------------------------------|
D|------------------------------------------------------------tttttttt-------|
A|----------------------------------------------------8888888888888888-------|
E|-0~~~~~~~~~~~~~~~-3~~~~~~~~~~~~~~~-t~~~~~~~~~~~~~~~-8888888877777777-------|

e|---------------------------------------------------------------------------|
B|---------------------------------------------------------------------------|
G|---------------------------------------------------------------------------|
D|-0000000000000000-3333333333333333-tttttttttttttttt-88888888tttttttt-------|
A|-0000000000000000-3333333333333333-tttttttttttttttt-8888888888888888-------|
E|-0000000000000000-3333333333333333-tttttttttttttttt-8888888877777777-------|


Lead: x2

e|-------13----------------13----------------13------------------------------|
B|-10-11----11-10-11-10-11----11-10-11-10-11----11-10-11-/13-11-10-/11-10----|
G|------------------------------------------------------------------------12-|
D|---------------------------------------------------------------------------|
A|---------------------------------------------------------------------------|
E|----LET-EVERYTHING-RING-OUT------------------------------------------------|

BREAKDOWN

Rhythm : Silent

Lead:

e|---------------------------------------------------------------------------|
B|---------------------------------------------------------------------------|
G|---------------------------------------------------------------------------|
D|---------------------------------------------------------------------------|
A|-------------8-----------------------------8---000000----------------------|
E|-00-00-0-8p0-8-00-00-0-8p7-5/7-00-00-0-8p0-8-0-111111----------------------|
   .. .. .       .. .. .         .. .. .       .

Rhythm & Lead:

e|---------------------------------------------------------------------------|
B|---------------------------------------------------------------------------|
G|---------------------------------------------------------------------------|
D|---------------------------------------------------------------------------|
A|-------------8-----------------------------8---000000----------------------|
E|-00-00-0-8p0-8-00-00-0-8p7-5/7-00-00-0-8p0-8-0-111111----------------------|
   .. .. .       .. .. .         .. .. .       .

Ryhthm: x4

e|---------------------------------------------------------------------------|
B|---------------------------------------------------------------------------|
G|---------------------------------------------------------------------------|
D|---------------------------------------------------------------------------|
A|---------------------------------------------------------------------------|
E|-00-00-0-00-00-0-00-00-0-00-00-0-------------------------------------------|
   .. .. . .. .. . .. .. . .. .. .

Lead:

e|---------------------------------------------------------------------------|
B|---------------------------------------------------------------------------|
G|---------------------------------------------------------------------------|
D|---------------------------------------------------------------------------|
A|-55-55-5-88-88-8-44-44-4-00-00-1-55-55-5-88-88-8-44-44-4-4/13~~~-----------|
E|---------------------------------------------------------------------------|

e|---------------------------------------------------------------------------|
B|---------------------------------------------------------------------------|
G|---------------------------------------------------------------------------|
D|---------------------------------------------------------------------------|
A|-55-55-5-88-88-8-44-44-4-00-00-1-55-55-5-88-88-8-4444444455555555~~~-------|
E|---------------------------------------------------------------------------|
  









************************************

| /   slide up
| \   slide down
| h   hammer-on
| p   pull-off
| ~   vibrato
| +   harmonic
| x   Mute note
| b   Bend
| pb  Pre-bend
| br  Bend release
| pbr Pre-bend release
| brb Bend release bend

************************************
Tap to rate this tab
# A B C D E F G H I J K L M N O P Q R S T U V W X Y Z