Guitaretab - guitar tabs
Song name
# A B C D E F G H I J K L M N O P Q R S T U V W X Y Z

Aselin Debison - Most Of All tab

 #--------------------PLEASE NOTE---------------------------#
   # This file is the author's own work and represents their  #
   # interpretation of the song. You may only use this file   #
   # for private study, scholarship, or research.             #
   #----------------------------------------------------------#


Most of All
by Aselin Debison





       I love the sound of the rain falling
E||-|--9-----6-----8-----6-------|--8-----6-----6-----6------|
B||-|----------------------------|---------------------------|
G||-|----------------------------|---------------------------|
D||-|--8--------8--7---------7---|--6------------------------|
A||-|----------------------------|--------------10-------10--|
E||-|----------------------------|-----------6---------------|

       down on the roof in the month of May.
E||-|--6-----6-----------6-------|--------6-----------6------|
B||-|--------------6-------------|---------------------------|
G||-|----------------------------|--8-----------7------------|
D||-|-----6-----------6----------|-----6-----------6---------|
A||-|--9-------------------------|---------------------------|
E||-|-----------6--9---------6---|--7--------7--6--------6---|
      

       I love to feel the sun
E||-|--9-----6-----8-----6-------|--8-----6-----6-----6------|
B||-|----------------------------|---------------------------|
G||-|----------------------------|---------------------------|
D||-|--8--------8--7---------7---|--6-----------5--------5---|
A||-|----------------------------|---------------------------|
E||-|----------------------------|-----------6---------------|

       after the rain on my face,
E||-|--6-----6-----------6-------|--------6-----------6------|
B||-|--------------6-------------|---------------------------|
G||-|----------------------------|--8-----------7------------|
D||-|-----6-----------6----------|-----6-----------6---------|
A||-|--9-------------------------|-----------------------8---|
E||-|-----------6--9---------6---|--7--------7--6------------|
      

      but most of all,
E||-|-----------------6----------|---------------------------|
B||-|--------6--7----------------|--9-----------------9------|
G||-|----------------------------|--------8--------8---------|
D||-|----------------------------|-----6--------6------------|
A||-|--9-----------9--------6----|--8--------8-----------6---|
E||-|----------------------------|---------------------------|
			         

      but most of all I love
E||-|-----------------6----------|---------------------------|
B||-|-----------6----------------|---------------------------|
G||-|--------8-------------------|--------6------------------|
D||-|----------------------------|-----6---------------------|
A||-|--10----------10------------|--9--------6--8------------|
E||-|----------------------------|---------------------------|

       you
E||-|--9-----6-----8-----6-------|--8-----6-----6-----6------|
B||-|----------------------------|---------------------------|
G||-|----------------------------|---------------------------|
D||-|--8--------8--7---------7---|--6------------------------|
A||-|----------------------------|--------------10-------10--|
E||-|----------------------------|-----------6---------------|

      
E||-|--6-----6-----------6-------|--------6-----------6------|
B||-|--------------6-------------|---------------------------|
G||-|----------------------------|--8-----------7------------|
D||-|-----6-----------6----------|-----6-----------6---------|
A||-|--9-------------------------|---------------------------|
E||-|-----------6--9---------6---|--7--------7--6--------6---|
      

	You
E||-|--9-----6-----8-----6-------|--8-----6-----6-----6------|
B||-|----------------------------|---------------------------|
G||-|----------------------------|---------------------------|
D||-|--8--------8--7---------7---|--6------------------------|
A||-|----------------------------|--------------10-------10--|
E||-|----------------------------|-----------6---------------|

	
E||-|--6-----6-----------6-------|--------6-----------6------|
B||-|--------------6-------------|---------------------------|
G||-|----------------------------|--8-----------7------------|
D||-|-----6-----------6----------|-----6-----------6---------|
A||-|--9-------------------------|-----------------------8---|
E||-|-----------6--9---------6---|--7--------7--6------------|
      

	I love the trees of gold
E||-|--9-----6-----8-----6-------|--8-----6-----6-----6------|
B||-|----------------------------|---------------------------|
G||-|----------------------------|---------------------------|
D||-|--8--------8--7---------7---|--6------------------------|
A||-|----------------------------|--------------10-------10--|
E||-|----------------------------|-----------6---------------|
[ Tab from: http://www.guitaretab.com/a/aselin-debison/153422.html ]
	against the blue October sky.
E||-|--6-----6-----------6-------|--------6-----------6------|
B||-|--------------6-------------|---------------------------|
G||-|----------------------------|--8-----------7------------|
D||-|-----6-----------6----------|-----6-----------6---------|
A||-|--9-------------------------|---------------------------|
E||-|-----------6--9---------6---|--7--------7--6--------6---|
      

	I love to feel the sea
E||-|--9-----6-----8-----6-------|--8-----6-----6-----6------|
B||-|----------------------------|---------------------------|
G||-|----------------------------|---------------------------|
D||-|--8--------8--7---------7---|--6------------------------|
A||-|----------------------------|--------------10-------10--|
E||-|----------------------------|-----------6---------------|

	running over my feet as the waves pass by,
E||-|--6-----6-----------6-------|--------6-----------6------|
B||-|--------------6-------------|---------------------------|
G||-|----------------------------|--8-----------7------------|
D||-|-----6-----------6----------|-----6-----------6---------|
A||-|--9-------------------------|-----------------------8---|
E||-|-----------6--9---------6---|--7--------7--6------------|
      

	but most of all,
E||-|-----------------6----------|-----------6---------------|
B||-|--------6--7----------------|--9-----------------9------|
G||-|----------------------------|--------8--------8---------|
D||-|----------------------------|-----6--------6------------|
A||-|--9-----------9--------6----|--8--------8-----------6---|
E||-|----------------------------|---------------------------|
			        

	yeah, most of all I love
E||-|-----------------6----------|---------------------------|
B||-|-----------6----------------|---------------------------|
G||-|--------8-------------------|--------6------------------|
D||-|----------------------------|-----6---------------------|
A||-|--10----------10------------|--9--------6--8------------|
E||-|----------------------------|---------------------------|

	
E||-|--9-----6-----8-----6-------|--8-----6-----6-----6------|
B||-|----------------------------|---------------------------|
G||-|----------------------------|---------------------------|
D||-|--8--------8--7---------7---|--6------------------------|
A||-|----------------------------|--------------10-------10--|
E||-|----------------------------|-----------6---------------|

	you.
E||-|--6-----6-----------6-------|--------6-----------6------|
B||-|--------------6-------------|---------------------------|
G||-|----------------------------|--8-----------7------------|
D||-|-----6-----------6----------|-----6-----------6---------|
A||-|--9-------------------------|---------------------------|
E||-|-----------6--9---------6---|--7--------7--6--------6---|
     

	
E||-|--9-----6-----8-----6-------|--8-----6-----6-----6------|
B||-|----------------------------|---------------------------|
G||-|----------------------------|---------------------------|
D||-|--8--------8--7---------7---|--6------------------------|
A||-|----------------------------|--------------10-------10--|
E||-|----------------------------|-----------6---------------|

	you.
E||-|--6-----6-----------6-------|--------6-----------6------|
B||-|--------------6-------------|---------------------------|
G||-|----------------------------|--8-----------7------------|
D||-|-----6-----------6----------|-----6-----------6---------|
A||-|--9-------------------------|-----------------------8---|
E||-|-----------6--9---------6---|--7--------7--6------------|
      


E||-|--------9-----------9-------|--------8-----------6------|
B||-|----------------------------|---------------------------|
G||-|----------------------------|---------------------------|
D||-|--8--6-----8--7--6-----7----|--6--6---------------------|
A||-|----------------------------|--------------10-11----10--|
E||-|----------------------------|-----------6---------------|


E||-|--------------------6-------|--------6-----------6------|
B||-|--------6-------------------|---------------------------|
G||-|----------------------------|--8-----------7------------|
D||-|-----6-----------6----------|-----6-----------6---------|
A||-|--9-------------------------|---------------------------|
E||-|-----------6--9--------6----|--7--------7--6--------6---|


E||-|--------9-----------9-------|--------8-----------6------|
B||-|----------------------------|---------------------------|
G||-|----------------------------|---------------------------|
D||-|--8--6-----8--7--6-----7----|--6--6---------------------|
A||-|----------------------------|--------------10-11----10--|
E||-|----------------------------|-----------6---------------|


E||-|--------------------6-------|--------6-----------6------|
B||-|--------6-------------------|---------------------------|
G||-|----------------------------|--8-----------7------------|
D||-|-----6-----------6----------|-----6-----------6---------|
A||-|--9-------------------------|---------------------------|
E||-|-----------6--9--------6----|--7--------7--6--------6---|
Related for Most Of All tab