Song name
# A B C D E F G H I J K L M N O P Q R S T U V W X Y Z

Asesino - Padre Pedofilio tab

-------------------PADRE PEDOFILIO (Pedophile Priest) - Asesino 
-------------------------------------------------------------------------------
Tabbed by:motallero
Email:motallero@hotmail.com

Tuning: 8 string standard  
6 string  F#BEADG I dont recommend downtuning this low until you have heavier gauge strings 
ex. F#=.60 (at least!) B=.52 etc  
If you have a bass youre better off tuning it up a step and playin this on that if 
you dont have heavy enough strings for your guitar

main riff (this section *=light mute-dampening effect)
e|---------------------------------------------------------------------------|
B|---------------------------------------------------------------------------|
G|-------------4444444444-4-333333-------------------------------------------|
D|--------------------------------------------555555555-5-444444444----------|
A|-2-5-3-5-2-----------------------2-5-3-6-5---------------------------------|
E|-0-3-1-3-0-----------------------0-3-1-4-3---------------------------------|
         *                *              *              *    
Verse
e|---------------------------------------------------------------------------|
B|---------------------------------------------------------------------------|
G|---------------------------------------------------------------------------|
D|---------------------------------------------------------------------------|
A|-4/5-2-2-5/6-2-2-222-4/5-2-2-5/6-2----222----------------------------------|
E|-2/3-0-0-3/4-0-0-000-2/3-0-0-3/4-0----000----------------------------------|
       * *     * * ***     * *     *    ***
prechorus  (note: all trem picking counts are approximate)
e|---------------------------------------------------|
B|------------------------------44333334433333333333-|
G|-66555555555665555555566555555---------------------|
D|---------------------------------------------------|
A|---------------------------------------------------|
E|---------------------------------------------------|

e|---------------------------------------------------|
B|------------------------------4433333--------------|
G|-66555555555665555555566555555--------3-3-3-33-----|
D|--------------------------------------1-1-1-11-----|
A|---------------------------------------------------|
E|---------------------------------------------------|
                                        * * * **
e|----------------------------------------------|
B|-----------------------------4433333----------|
G|66555555555665555555566555555-------5/6-5-----|
D|------------------------------------3/4-3-7-8-|
A|------------------------------------------5-6-|
E|----------------------------------------------|

e|--------------------------------------------------------|
B|------------------------------4433333-------------------|
G|-66555555555665555555566555555--------3-3-3-33--3-3-3-33|
D|--------------------------------------1-1-1-11--1-1-1-11|
A|--------------------------------------------------------|
E|--------------------------------------------------------|
                                        * * * **  * * * **

chorus (this section *=light mute-dampening effect)
e|---------------------------------------------------------------------------|
B|---------------------------------------------------------------------------|
G|-------------4444444444-4-333333-------------------------------------------|
D|--------------------------------------------555555555-5-444444444----------|
A|-2-5-3-5-2-----------------------2-5-3-6-5---------------------------------|
E|-0-3-1-3-0-----------------------0-3-1-4-3---------------------------------|
         *                *              *              *    
interlude
e|------------------------------------------------------------|
B|------------------------------------------------------------|
G|-------------------4-----4--3-------------------------------|
D|-----------------------------------------------5----5--4----|
A|------------------------------------------------------------|
E|-0-3-1-3-0-----------------------0-3-1-4-3------------------|
    
************************************
  *   palm mute
| /   slide up
| \   slide down
| h   hammer-on
| p   pull-off
| ~   vibrato
| +   harmonic
| x   Mute note
| b   Bend
| pb  Pre-bend
| br  Bend release
| pbr Pre-bend release
| brb Bend release bend

************************************
Tap to rate this tab
 
# A B C D E F G H I J K L M N O P Q R S T U V W X Y Z