Guitaretab - guitar tabs
Song name
# A B C D E F G H I J K L M N O P Q R S T U V W X Y Z
Home / A / Ash / Ritual tab

Ash - Ritual tab

----------------------------------------------------------------------------
			  RITUAL - Ash
----------------------------------------------------------------------------

Tabbed by:Chris Colyer
Email:csc501@york.ac.uk

Tuning:Standard

Intro
e|-------------------------------------------------------------------------|
B|-------------------------------------------------------------------------|
G|---------5-5-4-4---5---5-5-4-4-----------5-5-4-4---5------5-5-4-4--------|
D|-----------------5---5---------5-5---------------5------5---------5-5----|
A|---3-3-------------------------------3-3---------------------------------|
E|-------------------------------------------------------------------------|

e|-------------------------------------------------------------------------|
B|-------------------------------------------------------------------------|
G|------5-5-4-4---5---5-5-4-4-------5-5-4-4---5---5-5-4-4------------------|
D|--------------5----5-------5-5------------5---5--------5-5---------------|
A|---3-3-------------------------0-0---------------------------------------|
E|-------------------------------------------------------------------------|

e|-------------------------------------------------------------------------|
B|-------------------------------------------------------------------------|
G|------10-10-9-9----10---10-10-9-9----------5-5-4-4--5--5-5-4-4-----------|
D|----------------10----10---------10-10-------------5--5-------5-5--------|
A|---5-5-------------------------------------------------------------------|
E|----------------------------------------3-3------------------------------|
Verse: (She's, walking out on you again)
e|-------------------------------------------------------------------------|
B|-------------------------------------------------------------------------|
G|------5-5-4-4---5---5-5-4-4-------5-5-4-4---5---5-5-4-4------------------|
D|--------------5----5-------5-5------------5---5--------5-5---------------|
A|---3-3-------------------------0-0---------------------------------------|
E|-------------------------------------------------------------------------|
Continued..
e|-------------------------------------------------------------------------|
B|-------------------------------------------------------------------------|
G|------10-10-9-9----10---10-10-9-9----------5-5-4-4--5--5-5-4-4-----------|
D|----------------10----10---------10-10-------------5--5-------5-5--------|
A|---5-5-------------------------------------------------------------------|
E|----------------------------------------3-3------------------------------|
Continued..
e|-------------------------------------------------------------------------|
B|-------------------------------------------------------------------------|
G|------5-5-4-4---5---5-5-4-4-------5-5-4-4---5---5-5-4-4------------------|
D|--------------5----5-------5-5------------5---5--------5-5---------------|
A|---3-3-------------------------0-0---------------------------------------|
E|-------------------------------------------------------------------------|
Continued..                                 Bring In Distortion and Let Ring
e|-------------------------------------------------------------------------|
B|-------------------------------------------------------------------------|
G|------10-10-9-9----10---10-10-9-9----------5-5-4-4--5--5-5-4-4-----------|
D|----------------10----10---------10-10-------------5--5-------5-5--------|
A|---5-5-------------------------------------------------------------------|
E|----------------------------------------3-3------------------------------|

Chorus Part I: (Feel So Lost...)
e|-------------------------------0-0-0-0-----------------------------------|
B|------------7------------------0-0-0-0-----------------------------------|
G|------------7---------------------------10101010101010101010101010101010-|
D|---7--------7-----------------2-2-2-2---10101010101010101010101010101010-|
A|---7----(3)-5---------------5-2-2-2-2---8-8-8-8-8-8-8-8-8-8-8-8-8-8-8-8--|
E|---5------------------3-5-7---0-0-0-0------------------------------------|
Chorus Part II (I'm Not Talking..)
e|-------------------------------------------------------------------------|
B|-------------------------------------------------------------------------|
G|--9--9--9--9--10-10-10-10-10-10-10-10-5--5--5--5-------------------------|
D|--9--9--9--9--10-10-10-10-10-10-10-10-5--5--5--5----55555555-22222222----|
A|--7--7--7--7--8--8--8--8--8--8--8--8--3--3--3--3----55555555-22222222----|
E|----------------------------------------------------33333333-00000000----|
Chrous Part III (A Hell In my Head..)
e|-----------------------1-0-----------------------------------------------|
B|---------------------------1---------------------------------------------|
G|-------7-----5-----2---------------2-----5-------4-----------------------|
D|-----7-----5---------------------2-----5-----------7--5------------------|
A|---5-----3-----0---------------0-----3-------5---------------------------|
E|-------------------------------------------3-----------------------------|

Verse 2:
e|-------------------------------------------------------------------------|
B|-------------------------------------------------------------------------|
G|------5-5-4-4---5---5-5-4-4-------5-5-4-4---5---5-5-4-4------------------|
D|--------------5----5-------5-5------------5---5--------5-5---------------|
A|---3-3-------------------------0-0---------------------------------------|
E|-------------------------------------------------------------------------|
Continued..
e|-------------------------------------------------------------------------|
B|-------------------------------------------------------------------------|
G|------10-10-9-9----10---10-10-9-9----------5-5-4-4--5--5-5-4-4-----------|
D|----------------10----10---------10-10-------------5--5-------5-5--------|
A|---5-5-------------------------------------------------------------------|
E|----------------------------------------3-3------------------------------|
Continued..
e|-------------------------------------------------------------------------|
B|-------------------------------------------------------------------------|
G|------5-5-4-4---5---5-5-4-4-------5-5-4-4---5---5-5-4-4------------------|
D|--------------5----5-------5-5------------5---5--------5-5---------------|
A|---3-3-------------------------0-0---------------------------------------|
E|-------------------------------------------------------------------------|
Continued..                                 Bring In Distortion and Let Ring
e|-------------------------------------------------------------------------|
B|-------------------------------------------------------------------------|
G|------10-10-9-9----10---10-10-9-9----------5-5-4-4--5--5-5-4-4-----------|
D|----------------10----10---------10-10-------------5--5-------5-5--------|
A|---5-5-------------------------------------------------------------------|
E|----------------------------------------3-3------------------------------|
e|-------------------------------------------------------------------------|
B|-------------------------------------------------------------------------|
G|-------------------------------------------------------------------------|
D|-------------------------------------------------------------------------|
A|-------------------------------------------------------------------------|
E|-------------------------------------------------------------------------|
[ Tab from: http://www.guitaretab.com/a/ash/157583.html ]
Chorus 2 Part I: (Feel So Lost...)
e|-------------------------------0-0-0-0-----------------------------------|
B|------------7------------------0-0-0-0-----------------------------------|
G|------------7---------------------------10101010101010101010101010101010-|
D|---7--------7-----------------2-2-2-2---10101010101010101010101010101010-|
A|---7----(3)-5---------------5-2-2-2-2---8-8-8-8-8-8-8-8-8-8-8-8-8-8-8-8--|
E|---5------------------3-5-7---0-0-0-0------------------------------------|
Chorus 2 Part II (I'm Not Talking..)
e|-------------------------------------------------------------------------|
B|-------------------------------------------------------------------------|
G|--9--9--9--9--10-10-10-10-10-10-10-10-5--5--5--5-------------------------|
D|--9--9--9--9--10-10-10-10-10-10-10-10-5--5--5--5----55555555-22222222----|
A|--7--7--7--7--8--8--8--8--8--8--8--8--3--3--3--3----55555555-22222222----|
E|----------------------------------------------------33333333-00000000----|
Chrous 2 Part III (A Hell In my Head..)
e|-----------------------1-0-----------------------------------------------|
B|---------------------------1---------------------------------------------|
G|-------7-----5-----2---------------2-----5-------4-----------------------|
D|-----7-----5---------------------2-----5-----------7--5------------------|
A|---5-----3-----0---------------0-----3-------5---------------------------|
E|-------------------------------------------3-----------------------------|
Chorus 2 Outro
e|-------------------------------------------------------------------------|
B|-------------------------------------------------------------------------|
G|--9-9-9-9/10--10101010101010101010101010101010---------------------------|
D|--9-9-9-9/10--10101010101010101010101010101010---------------------------|
A|--7-7-7-7/8---8-8-8-8-8-8-8-8-8-8-8-8-8-8-8-8----------------------------|
E|-------------------------------------------------------------------------|

Solo:
e|-12----------------------------------------------------------------------|
B|-15bu17---10~--/10-8-----------------------------------------------------|
G|----------------------5-7-------------------------------------9--0-------|
D|-------------------------7------/7-7h10p7h10p7h10p7h10p7h10p7-10-7-10-7-5|
A|--------------------------5----------------------------------------------|
E|-------------------------------------------------------------------------|
...
e|-------------------------------------------------------------------------|
B|----10-8---8-------------------------------------------------------------|
G|--/9-----9---9-7---------------------------------------------------------|
D|-----------------5~---8bu10-7---------------------------7-7h9p7h9p7h9p7h9|
A|------------------------------------3-5-3-5/7------5-10------------------|
E|------------------------------5--3/5----------8-7~-----------------------|
...                                     (actually just over 11 - 11 1/4ish)
e|-----------------------------------------------10---10--10--10--10-------|
B|----------------------------5-5555-----8------/10bu11--11--11-11bd10-----|
G|--------------------------7b9-9999bd7--10bu12----------------------------|
D|p7h9p7h9p7h9p7h9-9bu10bd9------------9-----------------------------------|
A|-------------------------------------------------------------------------|
E|-------------------------------------------------------------------------|

Chorus 3 Part II (I'm Not Talking..)
e|-------------------------------------------------------------------------|
B|-------------------------------------------------------------------------|
G|--9--9--9--9--10-10-10-10-10-10-10-105---5555555-------------------------|
D|--9--9--9--9--10-10-10-10-10-10-10-105---5555555----55555555-22222222----|
A|--7--7--7--7--8--8--8--8--8--8--8--8-3---3333333----55555555-22222222----|
E|----------------------------------------------------33333333-00000000----|
Chrous 2 Part III (A Hell In my Head..)
e|-----------------------1-0-----------------------------------------------|
B|---------------------------1---------------------------------------------|
G|-------7-----5-----2---------------2-----5-------4-----------------------|
D|-----7-----5---------------------2-----5-----------7--5------------------|
A|---5-----3-----0---------------0-----3-------5---------------------------|
E|-------------------------------------------3-----------------------------|
Chorus 3 Part II (I'm Not Talking..)
e|-------------------------------------------------------------------------|
B|-------------------------------------------------------------------------|
G|--9--9--9--9--10-10-10-10-10-10-10-105---5555555-------------------------|
D|--9--9--9--9--10-10-10-10-10-10-10-105---5555555----55555555-22222222----|
A|--7--7--7--7--8--8--8--8--8--8--8--8-3---3333333----55555555-22222222----|
E|----------------------------------------------------33333333-00000000----|
Chrous 2 Part III (A Hell In my Head..)
e|-----------------------1-0-----------------------------------------------|
B|---------------------------1---------------------------------------------|
G|-------7-----5-----2---------------2-----5-------4-----------------------|
D|-----7-----5---------------------2-----5-----------7--5------------------|
A|---5-----3-----0---------------0-----3-------5---------------------------|
E|-------------------------------------------3-----------------------------|

Extra Chorus (So take these...)
e|-----------------------------------------------------------------------|
B|-----------------------------------------------------------------------|
G|--12121212-10101010--------------10101010-9999-7---4-------------------|
D|--12121212-10101010-7-77---------10101010-9999-7-----7-5---------------|x3
A|--10101010-8-8-8-8--7-77---3-5-7-8-8-8-8--7777-5-7---------------------|
E|--------------------5-55-5---------------------------------------------|
...
e|-----------------------------------------------------------------------|
B|-----------------------------------------------------------------------|
G|--12121212-10101010--------------10101010-9999-7-77-7777---------------|
D|--12121212-10101010-7-77---------10101010-9999-7-77-7777---------------|
A|--10101010-8-8-8-8--7-77---3-5-7-8-8-8-8--7777-5-55-5555---------------|
E|--------------------5-55-5---------------------------------------------|

Outro
e|-------------------------------------------------------------------------|
B|-------------------------------------------------------------------------|
G|---------5-5-4-4---5---5-5-4-4-----------5-5-4-4---5------5-5-4-4--------|
D|-----------------5---5---------5-5---------------5------5---------5-5----|
A|---3-3-------------------------------3-3---------------------------------|
E|-------------------------------------------------------------------------|
...
e|-------------------------------------------------------------------------|
B|-------------------------------------------------------------------------|
G|---------5-5-4-4---5---5-5-4-4-----------5-5-4-4---5---------------------|
D|-----------------5---5---------5-5---------------5-----------------------|
A|---3-3-------------------------------3-3---------------------------------|
E|-------------------------------------------------------------------------|

All Comments Welcome, Please Rate.

| /  slide up
| \  slide down
| h  hammer-on
| p  pull-off
| ~  vibrato
| +  harmonic
| x  Mute note
============================================================================
Related for Ritual tab