Song name
# A B C D E F G H I J K L M N O P Q R S T U V W X Y Z

Ashtar Command - China tab

Ahstar Command / Chris Holmes - China tab


Intro/Lead runs through whole song:

e|----0---0---0---0---0---0---0---0----0---0---0---0------0----0----0----0--------|
B|--9---9---9---9---7---7---7---7----9---9---9---9---9/10---10---10---10----------|
G|--------------------------------------------------------------------------------|
D|--------------------------------------------------------------------------------|
A|--------------------------------------------------------------------------------|
E|--------------------------------------------------------------------------------|

Chords to play over the top:

   E   B   C#  A

e|-0-|-0-|-0-|-0-----------------------|
B|-0-|-0-|-0-|-0-|---------------------|
G|-1-|-4-|-6-|-2-|---------------------|
D|-2-|-4-|-6-|-2-|---------------------|
A|-2-|-2-|-4-|-0-|---------------------|
E|-0-|---|---|---|---------------------|

Just figured this out by ear, it's really simple but sounds nice on acoustic.

Cheers
Chaz
(You can contact me at www.FlashChaz.com)
Tap to rate this tab
 
# A B C D E F G H I J K L M N O P Q R S T U V W X Y Z