Asking Alexandria - Right Now Na Na Na tab

-------------------------------------------------------------------------------
			     Right Na Na Na - Asking Alexandria
-------------------------------------------------------------------------------
Tabbed by:lamejmole
Email:lamejmole@yahoo.com

Punk Goes Pop 3
Right Na Na Na by Asking Alexandria
Drop B

I dare say it's quite accurate but nt perfect though

Heavy,yet melodic at the same time.

Simply amazing.I think it's one of the best cover in the Punk Goes Pop 3 album:)

Rate and comment.:)
And this is my first tab...so have mercy on me and give me a gd rating yea. :)


  Guitar 1 & 2
c#|--------------------------------------------|
g#|--------------------------------------------|
 e|--------------------------------------------|
 b|--------------------------------------------|
f#|--0-0-0-0-0-0-0-0--x4-0000000000000000--x4--|
 b|--0-0-0-0-0-0-0-0-----0000000000000000------|
     . . . . . . . .     ................

  intro
c#|-------------------------------------------|
g#|-------------------------------------------|
 e|-------------------------------------------|
 b|-------------------------------------------| 
f#|-0-000-0--0-0-000--0--0-000-0--0-0-000--0-0|    
 b|-0-000-0--0-0-000--0--0-000-0--0-0-000--0-0|
    . ... .  . . ...  .  . ... .  . . ...  . .


c#|----------------------------------------|
g#|----------------------------------------|
 e|----------------------------------------|
 b|----------------------------------------| for this part let it
f#|-0-000-0--0-0-000--0--0-000-0--0-0-000--|    ring.
 b|-0-000-0--0-0-000--0--0-000-0--0-0-000--|
    . ... .  . . ...  .  . ... .  . . ...  

Chorus

Guitar 1
c#|--9-10-9------7-7--5-5-----9-10-9------7-7--5-5--9~----|
g#|----------10------------3~---------10------------------|
 e|-------------------------------------------------------| continued...
 b|-------------------------~-----------------------------| 
f#|-------------------------------------------------------|
 b|-------------------------------------------------------|

c#|--9-10-9------7-7--5-5----------------------------~----|
g#|----------10------------3~---3-5-7~---8-7-5~---3~------|
 e|-------------------------------------------------------| for guitar 1,
 b|-------------------------~-----------------------------| figure out the 
f#|-------------------------------------------------------| timing yourself
 b|-------------------------------------------------------|


 
 Guitar 2
c#|--------------------------------------------|
g#|--------------------------------------------|
 e|----------------------------------------7---|
 b|--9-------7-------5-------9------7------x---|
f#|--9-x16---7-x16---5-x16---9-x8---7-x8---5---|
 b|--9-------7-------5-------9------7----------|

  Breakdown part
c#|----------------------------------------------------------------|
g#|----------------------------------------------------------------|
 e|----------------------------------------------------------------|
 b|----------------------------------------------------------------| x2 
f#|--00000000-------000000--------00000000-------0000000-----------|
 b|--00000000-3-0-1-000000-3-0-1~-00000000-3-0-1-0000000-0-0-0-0-0-|
     ........   .   ......   .    ........   .   .......   .   .

   back to intro which is...
c#|-------------------------------------------|
g#|-------------------------------------------|
 e|-------------------------------------------|
 b|-------------------------------------------| 
f#|-0-000-0--0-0-000--0--0-000-0--0-0-000--0-0|    
 b|-0-000-0--0-0-000--0--0-000-0--0-0-000--0-0|
    . ... .  . . ...  .  . ... .  . . ...  . .


c#|----------------------------------------|
g#|----------------------------------------|
 e|----------------------------------------|
 b|----------------------------------------| for this part let it
f#|-0-000-0--0-0-000--0--0-000-0--0-0-000--|    ring.
 b|-0-000-0--0-0-000--0--0-000-0--0-0-000--|
    . ... .  . . ...  .  . ... .  . . ...  

back to chorus

Guitar 1
c#|--9-10-9------7-7--5-5-----9-10-9------7-7--5-5--9~----|
g#|----------10------------3~---------10------------------|
 e|-------------------------------------------------------| continued...
 b|-------------------------~-----------------------------| 
f#|-------------------------------------------------------|
 b|-------------------------------------------------------|

c#|--9-10-9------7-7--5-5----------------------------~----|
g#|----------10------------3~---3-5-7~---8-7-5~---3~------|
 e|-------------------------------------------------------| for guitar 1,
 b|-------------------------~-----------------------------| figure out the 
f#|-------------------------------------------------------| timing yourself
 b|-------------------------------------------------------|



 Guitar 2
c#|--------------------------------------------|
g#|--------------------------------------------|
 e|----------------------------------------7---|
 b|--9-------7-------5-------9------7------x---|
f#|--9-x16---7-x16---5-x16---9-x8---7-x8---5---|
 b|--9-------7-------5-------9------7----------|



 after the techno bit,here comes my fav part (play this x2)
c#|-------------------------------------------------------|
g#|-------------------------------------------------------|
 e|-------------------------------------------------------|
 b|-------------------------------------------------------| continued...
f#|------5-4-5-7-5---4h5-4h5p0-----5-4-5-7-5---5-7-9-5----|
 b|--0-0--0-0-0-0--0-----------0-0--0-0-0-0--0------------|
     . .  . . . .  .           . .  . . . .  .    

c#|---------------------------------------------|
g#|---------------------------------------------|
 e|------------------------------7-----6--------|
 b|------------------------------x--x8-x--x8----|
f#|------5-4-5-7-5---4h5-4h5p0---5-----4--------|
 b|--0-0--0-0-0-0--0----------------------------|
     . .  . . . .  .          

   back to intro again which is...
c#|-------------------------------------------|
g#|-------------------------------------------|
 e|-------------------------------------------|
 b|-------------------------------------------| 
f#|-0-000-0--0-0-000--0--0-000-0--0-0-000--0-0|    
 b|-0-000-0--0-0-000--0--0-000-0--0-0-000--0-0|
    . ... .  . . ...  .  . ... .  . . ...  . .


c#|----------------------------------------|
g#|----------------------------------------|
 e|----------------------------------------|
 b|----------------------------------------| for this part let it
f#|-0-000-0--0-0-000--0--0-000-0--0-0-000--|    ring.
 b|-0-000-0--0-0-000--0--0-000-0--0-0-000--|
    . ... .  . . ...  .  . ... .  . . ...  

  Play chorus again
  Guitar 1
c#|--9-10-9------7-7--5-5-----9-10-9------7-7--5-5--9~----|
g#|----------10------------3~---------10------------------|
 e|-------------------------------------------------------| continued...
 b|-------------------------~-----------------------------| 
f#|-------------------------------------------------------|
 b|-------------------------------------------------------|

c#|--9-10-9------7-7--5-5----------------------------~----|
g#|----------10------------3~---3-5-7~---8-7-5~---3~------|
 e|-------------------------------------------------------| for guitar 1,
 b|-------------------------~-----------------------------| figure out the 
f#|-------------------------------------------------------| timing yourself
 b|-------------------------------------------------------|


 Guitar 2
c#|--------------------------------------------|
g#|--------------------------------------------|
 e|----------------------------------------7---|
 b|--9-------7-------5-------9------7------x---|
f#|--9-x16---7-x16---5-x16---9-x8---7-x8---5---|
 b|--9-------7-------5-------9------7----------|

  Guitar 1 & 2
c#|--------------------------------------------|
g#|--------------------------------------------|
 e|--------------------------------------------|
 b|--------------------------------------------|
f#|--0-0-0-0-0-0-0-0--x2-0000000000000000--x2--|
 b|--0-0-0-0-0-0-0-0-----0000000000000000------|
     . . . . . . . .     ................

this part pretty fast(nt really sure bout this part)
c#|--------------------------------|
g#|--------------------------------|
 e|--------------------------------|
 b|--------------------------------|x2
f#|--000000000000--000000-0000-0000|
 b|--000000000000--000000-0000-0000|
     ............  ...... .... ....

  back to intro again
c#|-------------------------------------------|
g#|-------------------------------------------|
 e|-------------------------------------------|
 b|-------------------------------------------| 
f#|-0-000-0--0-0-000--0--0-000-0--0-0-000--0-0|    
 b|-0-000-0--0-0-000--0--0-000-0--0-0-000--0-0|
    . ... .  . . ...  .  . ... .  . . ...  . .

c#|----------------------------------------|
g#|----------------------------------------|
 e|----------------------------------------|
 b|----------------------------------------| for this part let it
f#|-0-000-0--0-0-000--0--0-000-0--0-0-000--|    ring.
 b|-0-000-0--0-0-000--0--0-000-0--0-0-000--|
    . ... .  . . ...  .  . ... .  . . ...  

  back to chorus(play this x2)

  Guitar 1
c#|--9-10-9------7-7--5-5-----9-10-9------7-7--5-5--9~----|
g#|----------10------------3~---------10------------------|
 e|-------------------------------------------------------| continued...
 b|-------------------------~-----------------------------| 
f#|-------------------------------------------------------|
 b|-------------------------------------------------------|

c#|--9-10-9------7-7--5-5----------------------------~----|
g#|----------10------------3~---3-5-7~---8-7-5~---3~------|
 e|-------------------------------------------------------| for guitar 1,
 b|-------------------------~-----------------------------| figure out the 
f#|-------------------------------------------------------| timing yourself
 b|-------------------------------------------------------|




 Guitar 2
c#|--------------------------------------------|
g#|--------------------------------------------|
 e|----------------------------------------7---|
 b|--9-------7-------5-------9------7------x---|
f#|--9-x16---7-x16---5-x16---9-x8---7-x8---5---|
 b|--9-------7-------5-------9------7----------|

Enjoy!Dun forget to rate and comment.:)
Tap to rate this tab
 
# A B C D E F G H I J K L M N O P Q R S T U V W X Y Z