Song name
# A B C D E F G H I J K L M N O P Q R S T U V W X Y Z

Astrix - On Fire tab

Astrix - On Fire:

P.M = Palm Mute
--- = palm mute is on here

solo:

e|----------------------------           ____
B|---------------------------- \  /  /| |     
G|----------------------------  \/  / | |____    
D|-------5-------------5-8-8-3  /\    |      |
A|-------5-------------5-8-8-3 /  \   |  ____|
E|-3-3-3-3-3-3-3-3-3-3-3-6-6-1
P.M-----   -----------

e|-------------------------------------
B|-------------------------------------
G|-----------------------7-7-----5-----
D|-------5-------------5-7-7-----5--8-5
A|-------5-------------5-5-5-3-3-3--8-5
E|-3-3-3-3-3-3-3-3-3-3-3------------6-3
P.M-----   -----------       ---

a brake, and then:

e|----------------------------          
B|---------------------------- \  /  /|  /|
G|----------------------------  \/  / | / |    
D|-------5-------------5-8-8-3  /\    |   |
A|-------5-------------5-8-8-3 /  \   |   | 
E|-3-3-3-3-3-3-3-3-3-3-3-6-6-1
P.M-----   -----------

e|-------------------------------------
B|-------------------------------------
G|-----------------------7-7-----5-----
D|-------5-------------5-7-7-----5--8-5
A|-------5-------------5-5-5-3-3-3--8-5
E|-3-3-3-3-3-3-3-3-3-3-3------------6-3
P.M-----   -----------       ---

e|----------------------------
B|----------------------------     _
G|---------------------------- \/ (_)
D|-------5-------------5-8-8-3 /\ (_)
A|-------5-------------5-8-8-3
E|-3-3-3-3-3-3-3-3-3-3-3-6-6-1
P.M-----   -----------
another brake, and then, in the end:

e|---------------
B|---------------
G|-7-7-----5-----
D|-7-7-----5--8-5
A|-5-5-3-3-3--8-5
E|------------6-3
    P.M---  

http://www.astrix.up.co.il/
Tap to rate this tab
 
# A B C D E F G H I J K L M N O P Q R S T U V W X Y Z