Song name
# A B C D E F G H I J K L M N O P Q R S T U V W X Y Z

Atif Aslam - Hum Kis Gali Jaa Rahe Hai tab

................................

* Song  : HUM KIS GALI JAA RAHE HAI
* Artist: Atif Aslam
* Album : Doorie

................................

* Chords by Rohan Dasgupta
* E-Mail : rohanzdomain@gmail.com

................................


Intro Riff:

e|---5---5---5---5--5-|---5---5---5---5--5-|
b|-3---3---2---3---3--|-2---3---2---3---3--|
g|--------------------|--------------------|
d|--------------------|--------------------|
a|--------------------|--------------------|
E|--------------------|--------------------|

e|---5---5---5---5--5-|---5---5------------|
b|-2---3---2---3---3--|-2---3---3----------|
g|--------------------|--------------------|
d|--------------------|--------------------|
a|--------------------|--------------------|
E|--------------------|--------------------|


Verse1: <>

----D--------------A-----
Hum kis gali jaa rahe hai
----D--------------A-----
Hum kis gali jaa rahe hai
---G---------A------D---A-
Aapna koi thikana nahin...
---G---------A------D--
Aapna koi thikana nahin


Chord Progression with distortion -> D G D A G


Verse2:

--D-------------A--------
Armaanon ki ang maan main
--D---------------A-------
Besood hai apni lagan main
---G--------A------D---A-
Aapna koi fasana nahin...
---G--------A------D--
Aapna koi fasana nahin

---------------------G--A-
Yeah e yeah e yeah e a
---------------G--A-
Wo u wo u wo u o


Guitar Solo 1: (s-slide)

e|----------------|
b|-2S10-8-7---7---|
g|----------9--97-| X2
d|----------------|
a|----------------|
E|----------------|


Verse3:

D-------------A---------G-------------A-----
Ek ajnaabi sa chehra rehta hai meri nazar me
D------------A----------G-------------A-----
Ek dard aake thehra din-raat dard-e-jigar me
D-------------A---------G-------------A-----
Ek ajnaabi sa chehra rehta hai meri nazar me
D------------A----------G-------------A-----
Ek dard aake thehra din-raat dard-e-jigar me
---D--------------A-----
Jaagi hai kaisi talab si
----D-----------A------
Yeh arzoon hai ajaab si
--G------------A------D---A-
Lekin kisiko batana nahin...
--G------------A------D--
Lekin kisiko batana nahin


Repeat Verse1


Guitar Solo 2


Verse4: <>

Betaabiyaan hai pal pal, chhaya yeh kaisa nasha hai?
Khamoshiyan main saada hosh bhi gumshuda hai
Betaabiyaan hai pal pal, chhaya yeh kaisa nasha hai?
Khamoshiyan main saada hosh bhi gumshuda hai
Dar dar par ghoomta hai
Masti main kyun jhoomta hai
Deewane dil ne jaana nahin
Deewane dil ne jaana nahin


Repeat Verse1


................................


Any questions, comments and suggestions are invited.
Cheers.
Tap to rate this tab
# A B C D E F G H I J K L M N O P Q R S T U V W X Y Z