Song name
# A B C D E F G H I J K L M N O P Q R S T U V W X Y Z

Atif Aslam - Yakeen tab

This Yaqeen tab is 100% guaranteed correct
Comments wellcome on :  ali_whales_90@hotmail.com

"INTRO"

D and A

The piano part

----------------------------------------------|
10---9---5---7---7----10---9---10---12---12---|
----------------------------------------------|
----------------------------------------------|
----------------------------------------------|
----------------------------------------------|

The strum D


D G
Aaj dil dukha hai
A D
tum yaad ayee
D G
anjanay loog hain
A D
apnay kahan dhond payain


D E
jagay hain soyee nahe
G A D
aiseehai meree yeh baychanee
D E
din bhee wohi raatien wohi
G A D
saansoun main saansain hain nahee


A D A D G G A D
hmm hmmmm hmmhmmm hmm hmm hmm hmm hmm hmm hmm


D E
shamain abb dhalte nahe
G A D
aanchal jo tera simat jayee
D E
aap yahan hamesha rahain
G A D
duri rahay na hoon faaslay

A D A D G G A D
hmm hmmmm hmmhmmm hmm hmm hmm hmm hmm hmm hmm

A D A D G G A D
hmm hmmmm hmmhmmm hmm hmm hmm hmm hmm hmm hmm

now comes the solo hear the song for the right speed or way of playing it...

---------------------------------------------------------------|
7/9---9---7---5---7---5---7---9/10---9---7---5---7/9---7-------|
----------------------------------------------------------5~---|
---------------------------------------------------------------|
---------------------------------------------------------------|
---------------------------------------------------------------|

------------------7---6----11/12---12---11---9---7-------------|
7/9---9---7---5--------------------------------------5---------|
---------------------------------------------------------------|
---------------------------------------------------------------|
---------------------------------------------------------------|
---------------------------------------------------------------|


D E
jagay hain soyee nahe
G A D
aiseehai meree yeh baychanee
D E
din bhee wohi raatien wohi
G A D
saansoun main saansain hain nahee


A D A D G G A D
hmm hmmmm hmmhmmm hmm hmm hmm hmm hmm hmm hmm

A D A D G G A D
hmm hmmmm hmmhmmm hmm hmm hmm hmm hmm hmm hmm


D E
abb agar tum milay too
G A D
itna yaqeen hai
D E
hans dayen gay humto
G A D
roona nahe hai
Tap to rate this tab
# A B C D E F G H I J K L M N O P Q R S T U V W X Y Z