Guitaretab - guitar tabs
Song name
# A B C D E F G H I J K L M N O P Q R S T U V W X Y Z

Atlanta Rhythm Section - Spooky tab

-----------------------------------------------------------------

|Em7                      A|

In the cool of the evening
When everything is gettin kind of groovy
I call you up and ask you if you
Would you like to go with me and see a movie
First you say no, you've got some plans for the night
And then you stop, and say, all right
Love is kinda crazy with a spooky little girl like you

You always keep me guessin
I never seem to know what you are thinkin
And if a fella looks at you
It's for sure your little eye will be a-winkin
I get confused, cause I don't know where I stand
And then you smile, and hold my hand
Love is kinda crazy with a spooky little girl like you
Spooky

Key bumps up...

|Fm7                  Bb|

1st Solo
E|-----------------------------------------------------------------------|
B|-----------------------------------------------------------------------|
G|-----------------------------------------------------------------------|
D|--12---13---13------------------------------------------------12h13p12-|
A|15---15---15---15/------11----13b-13b-13b-11----------11---------------|
E|--------------------/13----13----------------13-11-13------------------|

 |-----------------------------------------------------------------------|
 |---15----16----16--16--------------------------------------------------|
 |17----17----17--------17-13h15p13-15b-15b-15b-13----------13-----------|
 |-------------------------------------------------15-13-15--------------|
 |-----------------------------------------------------------------------|
 |-----------------------------------------------------------------------|
[ Tab from: http://www.guitaretab.com/a/atlanta-rhythm-section/153770.html ]
 |-----------------------------------------------------------------------|
 |------------------------------------------------------18-16------------|
 |17p15-13-15-15b17-13----13-1515b-(17)-b15p13----13----------15s17-15-13|
 |---------------------15----------------------15----15------------------|
 |-----------------------------------------------------------------------|
 |-----------------------------------------------------------------------|

 |-----------------------------------------------------------------------|
 |-----------------------------------------------------------------------|
 |-----------------------------------------------------------------------|
 |15-13------15-15--18p15-17p15--17s18-17s18-15----15--------------------|
 |--------17------------------------------------17----17\----------------|
 |-----------------------------------------------------------------------|

 |/13-----------------------------------------------------------------13\|
 |/13-/16-13------------------------------------------------12~13--------|
 |----/15-13----------------------15-13-----------13/--------------------|
 |-----------15-13----------15-15--------15p13h15------------------------|
 |-----------------15-14-13----------------------------------------------|
 |-----------------------------------------------------------------------|

|Fm7               Bb|

If you decide someday to stop this little game that you are playin
I'm gonna tell you all what my heart's been a-dyin to be sayin
Just like a ghost, you've been a-hauntin my dreams
So I'll propose on Halloween
Love is kinda crazy with a spooky little girl like you

This is all I have done so far.  Nobody has even touched this tab on this site and I
I'd try it.  Its a pretty easy solo but their is a lot of tricky bends/slides/trills that
not sure if I got right.  If someone could try and help me out with the second solo I 
really appreciate it.
Related for Spooky tab
Spooky chords by Atlanta Rhythm Section