Song name
# A B C D E F G H I J K L M N O P Q R S T U V W X Y Z

Atlanta Rhythm Section - Homesick tab

Intro/main riff
E|----------------------------------------------------------|
B|----------------------------------------------------------|
G|--------3---------------3--------5p3---5p3-------3--------|
D|---3/5-----5---3-----------5~-----------------5-----------|
A|---------------------5------------------------------------|
E|----------------------------------------------------------|

E|-------------------------------------|
B|-------------------------------------|
G|--5b7r5-5-----3------3------3--------|
D|------------------5------5~---5~-----| X2
A|-------------------------------------|
E|-------------------------------------|


Verses
E|----------------------------------------------------|
B|----------------------------------------------------|
G|-----------x-x---3-x--3--------------------5-x-3----|
D|--5-x-x-5---x-x--3-x--3--3-x-x-3---x-x-x-x-5-x-3----|
A|--5-x-x-5---x-x----------3-x-x-3---x-x-x-x-3-x------|
E|--3-x-x-3-------------------------------------------|

E|-----------------------------------------------------------------|
B|-----------------------------------------------------------------|
G|-----------x-x----3-x---------------------x-x---3-x ----3--------|
D|--5-x-x-5---x-x---3-x--3--------5-x-x-5---x-x---3-x--3--3--------|X3
A|--5-x-x-5---x-x--------3--------5-x-x-5---x-x--------3-----------|
E|--3-x-x-3-----------------------3-x-x-3--------------------------|

Chorus
E|-------------------------------------------------|
B|---5-5---6--5-----3-3----5-5---6--5---3--3-3-----|
G|---5-5---5--5-----3-3----5-5---5--5---3--3-3-----|
D|---5-5---5--5-----5-5----5-5---5--5---5--3-3-----|
A|---3-3---3--3-----3-3----3-3---3--3---3--1-1-----|
E|-------------------------------------------------|

E|-------------------------------------------------------------|
B|-------------------------------------------------------------|
G|-----------x-x----3-x---------------------x-x---3-x ----3----|
D|--5-x-x-5---x-x---3-x--3--------5-x-x-5---x-x---3-x--3--3----|
A|--5-x-x-5---x-x--------3--------5-x-x-5---x-x--------3-------|
E|--3-x-x-3-----------------------3-x-x-3----------------------|

Verses
E|-----------------------------------------------------|
B|-----------------------------------------------------|
G|-----------x-x---3-x--3--------------------5-x-3-----|
D|--5-x-x-5---x-x--3-x--3--3-x-x-3---x-x-x-x-5-x-3-----|
A|--5-x-x-5---x-x----------3-x-x-3---x-x-x-x-3-x-------|
E|--3-x-x-3--------------------------------------------|

E|--------------------------------------------------------------|
B|--------------------------------------------------------------|
G|-----------x-x----3-x---------------------x-x---3-x ----3-----|
D|--5-x-x-5---x-x---3-x--3--------5-x-x-5---x-x---3-x--3--3-----| X2
A|--5-x-x-5---x-x--------3--------5-x-x-5---x-x--------3--------|
E|--3-x-x-3-----------------------3-x-x-3-----------------------|

Intro/main riff
E|------------------------------------------------------|
B|------------------------------------------------------|
G|--------3---------------3--------5p3---5p3-------3----|
D|---3/5-----5---3-----------5~-----------------5-------|
A|---------------------5--------------------------------|
E|------------------------------------------------------|

E|----------------------------------|
B|----------------------------------|
G|--5b7r5-5-----3------3------3-----|
D|------------------5------5~---5~--| X2
A|----------------------------------|
E|----------------------------------|


Guitar 2 Harmonizing
E|---------------------------------------------------|
B|---------------------------------------------------|
G|--------7--------------7--------9p7--9p7------7----|
D|---7/9-----9---7----------9~---------------9-------|
A|--------------------9------------------------------|
E|---------------------------------------------------|

E|-------------------------------------|
B|-------------------------------------|
G|---9b11r9-9-----7------7------7------|
D|--------------------9------9~----9~--|X2
A|-------------------------------------|
E|-------------------------------------|


Solo
E|-------------------------------------------------------------------------|
B|---/13--13---------------------------------------------------------------|
G|---------------12--10----------------8---10---10br---10---8--------------|
D|-------------------------13--10------------------------------------10----|
A|-------------------------------------------------------------------------|
E|-------------------------------------------------------------------------|

E|------------------------------------------------------13-13----------|
B|------------11-11-11---------------------------13b-----------r13-----|
G|---10/12---------------12---10---8-----------------------------------|
D|------------------------------------------10-------------------------|
A|---------------------------------------------------------------------|
E|---------------------------------------------------------------------|

E|--------------------------------------------------------------------|
B|--11------11---13p11-------------------------------------11---------|
G|-------12--------------------10/12~---12~----------10-12-----12~----|
D|--------------------------------------------10-12-------------------|
A|--------------------------------------------------------------------|
E|--------------------------------------------------------------------|

E|----------------------------------------------------|
B|----------------------------------------------------|
G|---10h12p10-----------------------------------------|
D|------------------12-10-12-10-8-----8-10-10p8~------|
A|---------------------------------10-----------------|
E|----------------------------------------------------|


Verses
E|------------------------------------------------------|
B|------------------------------------------------------|
G|-----------x-x---3-x--3--------------------5-x-3------|
D|--5-x-x-5---x-x--3-x--3--3-x-x-3---x-x-x-x-5-x-3------|
A|--5-x-x-5---x-x----------3-x-x-3---x-x-x-x-3-x--------|
E|--3-x-x-3---------------------------------------------|

E|---------------------------------------------------------------|
B|---------------------------------------------------------------|
G|-----------x-x----3-x---------------------x-x---3-x ----3------|
D|--5-x-x-5---x-x---3-x--3--------5-x-x-5---x-x---3-x--3--3------|X2
A|--5-x-x-5---x-x--------3--------5-x-x-5---x-x--------3---------|
E|--3-x-x-3-----------------------3-x-x-3------------------------|

Chorus
E|-------------------------------------------------|
B|---5-5---6--5-----3-3----5-5---6--5---3--3-3-----|
G|---5-5---5--5-----3-3----5-5---5--5---3--3-3-----|
D|---5-5---5--5-----5-5----5-5---5--5---5--3-3-----|
A|---3-3---3--3-----3-3----3-3---3--3---3--1-1-----|
E|-------------------------------------------------|


Bridge
Guitar 1
E|------------------------------------------------------------------|
B|------------------------------------------------------------------|
G|-----------x-x----3-x---------------------x-x---3-x ----3---------|
D|--5-x-x-5---x-x---3-x--3--------5-x-x-5---x-x---3-x--3--3---------| X2
A|--5-x-x-5---x-x--------3--------5-x-x-5---x-x--------3------------|
E|--3-x-x-3-----------------------3-x-x-3---------------------------|






E|-------------------------------------------------------------------------|
B|---/8-8-8-8-8------------------------------------------------------------|
G|---/7-7-7-7-7---------------3-x------------------x-x---3-x ----3---------|
D|----------------------------3-x-3------5-x-x-5---x-x---3-x--3--3---------| X2
A|--------------------------------3------5-x-x-5---x-x--------3------------|
E|---------------------------------------3-x-x-3---------------------------|

Guitar 2
E|------------------------------------------------------------------|
B|------------------------------------------------------------------|
G|-----------x-x----3-x---------------------x-x---3-x ----3---------|
D|--5-x-x-5---x-x---3-x--3--------5-x-x-5---x-x---3-x--3--3---------| X4
A|--5-x-x-5---x-x--------3--------5-x-x-5---x-x--------3------------|
E|--3-x-x-3-----------------------3-x-x-3---------------------------|

Intro/main riff
E|-----------------------------------------------------------|
B|-----------------------------------------------------------|
G|--------3---------------3--------5p3---5p3-------3---------|
D|---3/5-----5---3-----------5~-----------------5------------|
A|---------------------5-------------------------------------|
E|-----------------------------------------------------------|

E|--------------------------------------|
B|--------------------------------------|
G|--5b7r5-5-----3------3------3---------|
D|------------------5------5~---5-5-----|X2
A|--------------------------------------|
E|--------------------------------------|


Guitar 2 Harmonizing               Second 9 only sec, time
E|------------------------------------------------------|
B|------------------------------------------------------|
G|--------7--------------7--------9p7--9p7------7-------|
D|---7/9-----9---7----------9~---------------9----------|
A|--------------------9---------------------------------|
E|------------------------------------------------------|

E|--------------------------------------|
B|--------------------------------------|
G|---9b11r9-9-----7------7------7-------|
D|--------------------9------9~----9~---|X2
A|--------------------------------------|
E|--------------------------------------|

Verses
E|-----------------------------------------------------|
B|-----------------------------------------------------|
G|-----------x-x---3-x--3--------------------5-x-3-----|
D|--5-x-x-5---x-x--3-x--3--3-x-x-3---x-x-x-x-5-x-3-----|
A|--5-x-x-5---x-x----------3-x-x-3---x-x-x-x-3-x-------|
E|--3-x-x-3--------------------------------------------|

E|------------------------------------------------------------------|
B|------------------------------------------------------------------|
G|-----------x-x----3-x---------------------x-x---3-x ----3---------|
D|--5-x-x-5---x-x---3-x--3--------5-x-x-5---x-x---3-x--3--3---------| X2
A|--5-x-x-5---x-x--------3--------5-x-x-5---x-x--------3------------|
E|--3-x-x-3-----------------------3-x-x-3---------------------------|








Little Riffs during end of last verse and chorus
E|----------------------------------------|
B|----13br-11--13-13br--11----------------|
G|---------------------------------12~----|
D|----------------------------------------|
A|----------------------------------------|
E|----------------------------------------|

Chorus
Lead Guitar 1
E|-------------------------------------------------------------------|
B|--/13--13----------------------------------------------------------|
G|--------------12--10------------8---10---10br---10---8-------------|
D|------------------------13--10-------------------------------10----|
A|-------------------------------------------------------------------|
E|-------------------------------------------------------------------|

E|-------------------------------------------------------------------------|
B|-/13--13-----------------------------------------------------------------|
G|------------12--10-----------8---10---10br----8----10b---8---10b---8-----|
D|---------------------13--10----------------------------------------------|
A|-------------------------------------------------------------------------|
E|-------------------------------------------------------------------------|

Guitar 2
E|------------------------------------------------|
B|---5-5---6--5-----3-3----5-5---6--5---3--3-3----|
G|---5-5---5--5-----3-3----5-5---5--5---3--3-3----|
D|---5-5---5--5-----5-5----5-5---5--5---5--3-3----|
A|---3-3---3--3-----3-3----3-3---3--3---3--1-1----|
E|------------------------------------------------|

Guitar 1
E|------------------------------------------------------------------|
B|------------------------------------------------------------------|
G|-----------x-x----3-x---------------------x-x---3-x ----3---------|
D|--5-x-x-5---x-x---3-x--3--------5-x-x-5---x-x---3-x--3--3---------|
A|--5-x-x-5---x-x--------3--------5-x-x-5---x-x--------3------------|
E|--3-x-x-3-----------------------3-x-x-3---------------------------|

E|------------------------------------------------------------------------|
B|---/8-8-8-8-8-----------------------------------------------------------|
G|---/7-7-7-7-7--------------3-x----------------------x-x---3-x ----3-----|
D|---------------------------3-x--3-------5-x-x-5-----x-x---3-x--3--3-----|
A|--------------------------------3-------5-x-x-5-----x-x--------3--------|
E|----------------------------------------3-x-x-3-------------------------|

Guitar 2
E|------------------------------------------------------------------|
B|------------------------------------------------------------------|
G|-----------x-x----3-x---------------------x-x---3-x ----3---------|
D|--5-x-x-5---x-x---3-x--3--------5-x-x-5---x-x---3-x--3--3---------| X2
A|--5-x-x-5---x-x--------3--------5-x-x-5---x-x--------3------------|
E|--3-x-x-3-----------------------3-x-x-3---------------------------|

Guitars play these parts till song fades
Tap to rate this tab
 
# A B C D E F G H I J K L M N O P Q R S T U V W X Y Z