Song name
# A B C D E F G H I J K L M N O P Q R S T U V W X Y Z

Atlas Sound - Mona Lisa tab

-------------------------------------------------------------------------------
			     Mona Lisa - Atlas Sound
-------------------------------------------------------------------------------
Tabbed by: b561248
Email: ben@skrb.org

Tuning: Standard

Capo on 7 - Chords relative to Capo


Intro/Verse:
e|--0----0----0----0----|
B|--1----1----1----0----|
G|--0----0----2----0----|
D|--2----0h2--0----0----|
A|--3----3----0----2----|
E|--x----x----x----3----|

Chorus:
e|--0----0----0----|
B|--1----1----0----|
G|--2----0----0----|
D|--3----2----0----|
A|--3----0----2----|
E|--1----x----3----|

Bridge: On the album, the bridge is played by an electric guitar with no capo. Leave the 
capo on, and play it like this:
e|--0----0----|
B|--2----2----|
G|--2----2----|
D|--4----2----|
A|--4----0----|
E|--2----x----|

...Or take the capo off and try to sound like the record, by playing it like this:
e|--0----0----|
B|--0----0----|
G|--6----1----|
D|--6----2----|
A|--4----2----|
E|--x----0----|

That's it - feel free to comment any corrections though I'm pretty sure this is right.
Tap to rate this tab
 
# A B C D E F G H I J K L M N O P Q R S T U V W X Y Z