Song name
# A B C D E F G H I J K L M N O P Q R S T U V W X Y Z

Atoms For Peace - Before Your Very Eyes tab

-----------------------------------------------------------------------------
               BEFORE YOUR VERY EYES - Atoms for Peace
-----------------------------------------------------------------------------
Tabbed by: CloudCuckoo
E-mail: tronikus@hotmail.com

Tuning: Standard

e|----------------------------------------------------------|
B|---------------11-11--10--8-----------------11-11--10--8--|
G|----------------------------------------------------------|
D|----------------------------------------------------------|
A|--10-10--8h10------------------10-10--8h10----------------|
E|----------------------------------------------------------| Riff A

e|----------------------------------------------------------|
B|------------10-10--8--6--------------10---8---6-----------|
G|----------------------------------------------------------|
D|----------------------------------------------------------|
A|--8-8--6/8-----------------8-8--6/8-----------------------|
E|----------------------------------------------------------| Riff B

e|----------------------------------------------------------|
B|------------8--6--4-h6---------------8--6--4-h6-----------|
G|----------------------------------------------------------|
D|----------------------------------------------------------|
A|--6-6--4/6-----------------6-6--4/6-----------------------|
E|----------------------------------------------------------| Riff C

e|----------------------------------------------------------|
B|------------6--5--3-h5---------------6--5--3-h5-----------|
G|----------------------------------------------------------|
D|----------------------------------------------------------|
A|--5-5--3h5-----------------5-5--3h5-----------------------|
E|----------------------------------------------------------| Riff D

Riff Order: A B A B C D (6x)

It's gonna be a glorious day !
Tap to rate this tab
 
# A B C D E F G H I J K L M N O P Q R S T U V W X Y Z