Song name
# A B C D E F G H I J K L M N O P Q R S T U V W X Y Z

Attitack - Drawing The Line tab

-= Tabs for drawing the line =-

==================================================================================

Guitar Help
==================================================================================

o = Open
m = Palm-Muted
x = Harmonics
r = Reversed Swell.  Achieved with the volume button or a volume pedal.

==================================================================================

Guitar 1 Tabs
==================================================================================

  0:00
E ------------------------------------------------------------------------------------------------|
B ------------------------------------------------------------------------------------------------|
G ------------------------------------------------------------------------------------------------|
D 3-----3-----3-----3-----3-----3-----3-----3-----3-----3-----3-----3-----3-----3-----3-----3-----|
A 3-----3-----3-----3-----3-----3-----3-----3-----3-----3-----3-----3-----3-----3-----3-----3-----|
E 1-----1-----1-----1-----1-----1-----1-----1-----1-----1-----1-----1-----1-----1-----1-----1-----|
  m-----m-----m-----m-----m-----m-----m-----m-----m-----m-----m-----m-----m-----m-----m-----m-----|

  0:02
E ------------------------------------------------------------------------------------------------|
B ------------------------------------------------------------------------------------------------|
G ------------------------------------------------------------------------------------------------|
D ------------------------------------------------------------------------------------------------|
A ------------------------------------------------------------------------------------------------|
E ------------------------------------------------------------------------------------------------|
  ------------------------------------------------------------------------------------------------|

  0:05
E ------------------------------------------------------------------------------------------------|
B ------------------------------------------------------------------------------------------------|
G ------------------------------------------------------------------------------------------------|
D 4-----4-----4-----7-----------4-----4-----4-----4-----4-----4-----------4-----4-----4-----------|
A 4-----4-----4-----7-----------4-----4-----4-----4-----4-----4-----------4-----4-----4-----------|
E 2-----2-----2-----5-----------2-----2-----2-----2-----2-----2-----2--2--2-----2-----2-----2--2--|
  m-----m-----m-----o-----------m-----m-----m-----m-----m-----m-----m--m--m-----m-----m-----m--m--|

  0:08
E ------------------------------------------------------------------------------------------------|
B ------------------------------------------------------------------------------------------------|
G ------------------------------------------------------------------------------------------------|
D 4-----4-----4-----7-----------4-----4-----4-----4-----4-----4-----------4-----4-----4-----------|
A 4-----4-----4-----7-----------4-----4-----4-----4-----4-----4-----------4-----4-----4-----------|
E 2-----2-----2-----5-----------2-----2-----2-----2-----2-----2-----------2-----2-----2-----------|
  m-----m-----m-----o-----------m-----m-----m-----m-----m-----o-----------m-----m-----o-----------|

  0:11
E ------------------------------------------------------------------------------------------------|
B ------------------------------------------------------------------------------------------------|
G ------------------------------------------------------------------------------------------------|
D ------------------------------------------------------------------------------------------------|
A ------------------------------------------------------------------------------------------------|
E ------------------------------------------------------------------------------------------------|
  ------------------------------------------------------------------------------------------------|

  0:14
E ------------------------------------------------------------------------------------------------|
B ------------------------------------------------------------------------------------------------|
G ------------------------------------------------------------------------------------------------|
D ------------------------------------------------------------------------------------------------|
A ------------------------------------------------------------------------------------------------|
E ------------------------------------------------------------------------------------------------|
  ------------------------------------------------------------------------------------------------|

  0:16
E ------------------------------------------------------------------------------------------------|
B ------------------------------------------------------------------------------------------------|
G ------------------------------------------------------------------------------------------------|
D ------------------------------------------------------------------------------------------------|
A ------------------------------------------------------------------------------------------------|
E ------------------------------------------------------------------------------------------------|
  ------------------------------------------------------------------------------------------------|

  0:19
E ------------------------------------------------|
B ------------------------------------------------|
G ------------------------------------------------|
D ------------------------------------------------|
A ------------------------------------------------|
E ------------------------------------------------|
  ------------------------------------------------|



==================================================================================

Guitar 2 Tabs
==================================================================================

  0:00
E ------------------------------------------------------------------------------------------------|
B ------------------------------------------------------------------------------------------------|
G 11----11----11----14----14----14----16----14----18----18----18----16----16----14----14----11----|
D x-----x-----x-----x-----x-----x-----x-----x-----x-----x-----x-----x-----x-----x-----x-----x-----|
A 9-----9-----9-----12----12----12----14----12----16----16----16----14----14----12----12----9-----|
E ------------------------------------------------------------------------------------------------|
  o-----o-----o-----o-----o-----o-----o-----o-----o-----o-----o-----o-----o-----o-----o-----o-----|

  0:02
E ------------------------------------------------------------------------------------------------|
B ------------------------------------------------------------------------------------------------|
G ------------------------------------------------------------------------------------------------|
D 6-----6--6--6--6--6--6--6--6--6--6--6--6--6--6--6--6--6--6--6--6--6--6--6--6--6--6--6--6--6--6--|
A 6-----6--6--6--6--6--6--6--6--6--6--6--6--6--6--6--6--6--6--6--6--6--6--6--6--6--6--6--6--6--6--|
E 4-----4--4--4--4--4--4--4--4--4--4--4--4--4--4--4--4--4--4--4--4--4--4--4--4--4--4--4--4--4--4--|
  o-----m--m--m--m--m--m--m--m--m--m--m--m--m--m--m--m--m--m--m--m--m--m--m--m--m--m--m--m--m--m--|

  0:05
E ------------------------------------------------------------------------------------------------|
B ------------------------------------------------------------------------------------------------|
G ------------------------------------------------------------------------------------------------|
D 4-----4-----4-----4-----5--------4--------2-----4-----4-----4-----4-----5--------4--------2-----|
A 4-----4-----4-----4-----5--------4--------2-----4-----4-----4-----4-----5--------4--------2-----|
E 2-----2-----2-----2-----3--------2--------0-----2-----2-----2-----2-----3--------2--------0-----|
  o-----x-----x-----x-----o--------o--------o-----o-----x-----x-----x-----o--------o--------o-----|

  0:08
E ------------------------------------------------------------------------------------------------|
B ------------------------------------------------------------------------------------------------|
G 11----------------------------------------------9-----------------7-----------------14----------|
D ------------------------------------------------------------------------------------------------|
A ------------------------------------------------------------------------------------------------|
E ------------------------------------------------------------------------------------------------|
  o-----------------------------------------------o-----------------o-----------------o-----------|

  0:11
E ------------------------------------------------------------------------------------------------|
B ------------------------------------------------------------------------------------------------|
G ------------------------------------------------------------------------------------------------|
D 4-----4-----4-----4-----5--------4--------2-----4-----4-----4-----4-----5--------4--------2-----|
A 4-----4-----4-----4-----5--------4--------2-----4-----4-----4-----4-----5--------4--------2-----|
E 2-----2-----2-----2-----3--------2--------0-----2-----2-----2-----2-----3--------2--------0-----|
  o-----x-----x-----x-----o--------o--------o-----o-----x-----x-----x-----o--------o--------o-----|

  0:14
E ------------------------------------------------------------------------------------------------|
B ------------------------------------------------------------------------------------------------|
G ------------------------------------------------------------------------------------------------|
D 4-----4-----4-----4-----5--------4--------2-----4-----4-----4-----4-----5--------4--------2-----|
A 4-----4-----4-----4-----5--------4--------2-----4-----4-----4-----4-----5--------4--------2-----|
E 2-----2-----2-----2-----3--------2--------0-----2-----2-----2-----2-----3--------2--------0-----|
  o-----x-----x-----x-----o--------o--------o-----o-----x-----x-----x-----o--------o--------o-----|

  0:16
E ------------------------------------------------------------------------------------------------|
B ------------------------------------------------------------------------------------------------|
G ------------------------------------------------------------------------------------------------|
D 4-----4-----4-----4-----5--------4--------2-----4-----4-----4-----4-----5--------4--------2-----|
A 4-----4-----4-----4-----5--------4--------2-----4-----4-----4-----4-----5--------4--------2-----|
E 2-----2-----2-----2-----3--------2--------0-----2-----2-----2-----2-----3--------2--------0-----|
  o-----x-----x-----x-----o--------o--------o-----o-----x-----x-----x-----o--------o--------o-----|

  0:19
E ------------------------------------------------|
B ------------------------------------------------|
G ------------------------------------------------|
D ------------------------------------------------|
A ------------------------------------------------|
E ------------------------------------------------|
  ------------------------------------------------|



==================================================================================

Bass Tabs
==================================================================================

  0:00
G ------------------------------------------------------------------------------------------------|
D ------------------------------------------------------------------------------------------------|
A ------------------------------------------------------------------------------------------------|
E 0-----------------------------------------------------------------------------------------------|

  0:02
G ------------------------------------------------------------------------------------------------|
D ------------------------------------------------------------------------------------------------|
A ------------------------------------------------------------------------------------------------|
E ------------------------------------------------------------------------------------------------|

  0:05
G ------------------------------------------------------------------------------------------------|
D ------------------------------------------------------------------------------------------------|
A ------------------------------------------------------------------------------------------------|
E 4-----4-----------4-----4-----4-----------4-----4-----4-----------4-----4-----4-----------4-----|

  0:08
G ------------------------------------------------------------------------------------------------|
D ------------------------------------------------------------------------------------------------|
A ------------------------------------------------------------------------------------------------|
E ------------------------------------------------------------------------------------------------|

  0:11
G ------------------------------------------------------------------------------------------------|
D ------------------------------------------------------------------------------------------------|
A ------------------------------------------------------------------------------------------------|
E ------------------------------------------------------------------------------------------------|

  0:14
G ------------------------------------------------------------------------------------------------|
D ------------------------------------------------------------------------------------------------|
A ------------------------------------------------------------------------------------------------|
E ------------------------------------------------------------------------------------------------|

  0:16
G ------------------------------------------------------------------------------------------------|
D ------------------------------------------------------------------------------------------------|
A ------------------------------------------------------------------------------------------------|
E ------------------------------------------------------------------------------------------------|

  0:19
G ------------------------------------------------|
D ------------------------------------------------|
A ------------------------------------------------|
E ------------------------------------------------|



==================================================================================

Drum Help
==================================================================================

B = Bass Drum
S = Snare
H = Hi-hat
C = Crash
R = Ride
HT = High Tom
MT = Medium Tom
FT = Floor Tom
For the crash and hihat, x means closed and o means open.
When using stick hits, they will be represented by a s.

==================================================================================

Drum Tabs
==================================================================================

  0:00
B x---------------xxxxxxxxxxxxxxxxxxxxxxxxxxxxxxxxxxxxxxxxxxxxxxxx-|
S x-------------------x-------x-------x-------x-------x-------x----|
H -----------------------------------------------------------------|
C o---------------o---o---o---o---o---o---o---o---o---o---o---o----|
R -----------------------------------------------------------------|
HT-----------------------------------------------------------------|
MT-----------------------------------------------------------------|
FT-----------------------------------------------------------------|

  0:05
B xxxxxxxxxxxxxxxxx---xx--x---xx--x---xx--x---xx--x---xx--x---xx--|
S ----x-------x-----x---x---x---x---x---x---x---x---x---x---x---x-|
H ----------------------------------------------------------------|
C o---o---o---o---o-o---o---o---o---o---o---o---o---o---o---o---o-|
R ----------------------------------------------------------------|
HT----------------------------------------------------------------|
MT----------------------------------------------------------------|
FT----------------------------------------------------------------|

  0:11
B x---xx--x---x-----------x-x-x-x---x---x-x-x-x-x---x-----x-x-x-x-|
S --x---x-xXxx--------------------x---x-----------x---x-x---------|
H ----------------------------------------------------------------|
C --o---o-----------------o---------------------------------------|
R ----------------------------------------------------------------|
HT------------xx------------------x-x-------------x---------------|
MT--------------xx--------------------x-x-------------x-x---------|
FT----------------------------x-----------x---x-----------x---x---|

  0:16
B --x-----x-x-x-x---x-x---x-----------------------|
S x---x-x---------x---xXxx------------------------|
H ------------------------------------------------|
C ------------------------o-----------------------|
R ------------------------------------------------|
HTx-x-------------x-x-----------------------------|
MT----x-x-----------------------------------------|
FT--------x---x-----------------------------------|
Tap to rate this tab
 
# A B C D E F G H I J K L M N O P Q R S T U V W X Y Z