Song name
# A B C D E F G H I J K L M N O P Q R S T U V W X Y Z

Audacious - Speechless tab

-------------------------------------------------------------------------------
			     SPEECHLESS - Audacious
-------------------------------------------------------------------------------
Tabbed by: makutoid
Email: makutoid_@hotmail.com

Tuning: Standard

Verse
   C            D              Em
e|---------------------------|---------------------------|
B|---------------------------|---------------------------|
G|------0------------0-------|------0------------0-------|
D|---------2----0--0----0--0-|-2--2----2----2--2----2----|
A|-3--3-------3--------------|------------2------------2-|
E|---------------------------|---------------------------|

Instrumental
   C       D            Em
e|--------------------|-14--15--14----------|
B|-----12------13--12-|-------------15--15--|
G|-12------15---------|---------------------|
D|--------------------|---------------------|
A|--------------------|---------------------|
E|--------------------|---------------------|


Those are the only lead/electric parts in the song that stand out enough to be worth it 
(in my opinion) so for the rest of the chords see my other submission :)

************************************

| /   slide up
| \   slide down
| h   hammer-on
| p   pull-off
| ~   vibrato
| +   harmonic
| x   Mute note
| b   Bend
| pb  Pre-bend
| br  Bend release
| pbr Pre-bend release
| brb Bend release bend

************************************
Tap to rate this tab
# A B C D E F G H I J K L M N O P Q R S T U V W X Y Z