Song name
# A B C D E F G H I J K L M N O P Q R S T U V W X Y Z

Audio Adrenaline - Dirty tab

Title:Dirty
Band:Audio Adrenaline

Alright, this is Dirty by Audio Adrenaline from their new CD Worldwide.
The riffs are awesome, so enjoy.

intro/chorus first guitar

E|-------------------------------------------------------------|
B|-------------------------------------------------------------|
G|-------------------------------------------------------------|
D|---------------------8------------3-----------3--------------|
A|--------3----6-8/10--------1-3/5------1-3/5------------------|
e|1-1-3/5------------------------------------------------------|

repeat that, but the second time at the beginning only hit the 1 once

2nd guitar:

E|--------------------------|--------------8-10---|
B|--10-9-10-9-10-8----------|--10-9-10-9-10-------|
G|----------------10--7/9/10|------------------10-|

repeat until verse

E|-------------------------------------------------------------|
B|---------------4--3--3--4--3--4--3---------------------------|
G|---------------3--3--3--3--3--3--3---------------------------|
D|--3--3---------5--3--3--5--3--5--3---------------------------|
A|--3--3-------------------------------------------------------|
e|--1--1-------------------------------------------------------|

then it goes into

E|-------------------------------------------------------------|
B|---------3-6--------6-6-------3-6---------6-6----------------|
G|------3----------7--------3------------7---------------------|
D|---5-----------8--------5-----------8------------------------|
A|-------------------------------------------------------------|
e|-------------------------------------------------------------|

then the mini solo is something like this

E|--------------------------|----------------------------13-13b13b13b|
B|--------------------------|----------------------13-16b------------|
G|--------------------------|----------13-15b-13-15------------------|
D|--------------------13-15b|--15-13-15------------------------------|
A|-------13-15b-13-15b------|----------------------------------------|
e|-13-16--------------------|----------------------------------------|

then repeat the chorus, etc. enjoy
Tap to rate this tab
# A B C D E F G H I J K L M N O P Q R S T U V W X Y Z