Song name
# A B C D E F G H I J K L M N O P Q R S T U V W X Y Z

Audio Adrenaline - Miracle tab

Title:Miracle
Band:Audio Adrenaline
Tab by Austen L.

Aight yall, 
This song rocks and is incredibly easy.  most of it is mostly muted
power chords. I'm very sure its right, except the bridge may be a
little sketchy, but its close.  

E|-----------------------|
B|----7~~-----7----------|
G|--9~~-9~~-9---9-6------|
D|------------------7----|
A|-----------------------|
e|-----------------------|

Verse I
First time:G#/A/C#/D
Then:
A/G# (477xxx)
A (577xxx)
C# (x466xx)
D (x577xx)

Chorus:
E A D E A (twice)

Fill:
E|-----------------------------------------------------------------------|
B|----7~~-----7--------------7~~-----7-----------------------------------|
G|--9~~-9~~-9---9-6--------9~~-9~~-9---9-6-----6~~-----------------------|
D|-------------------------------------------9~~-9~-7~~------------------|
A|-----------------------------------------------------------------------|
e|-----------------------------------------------------------------------|

Verse II:
Chords same as Verse I
E|--------------------------|
B|--------------------------|
G|-10-----10----10-10-10---*|
D|-/7-----7------7--7--7\---|(On the slides, slide down and right back up)
A|-------------------------*|
e|--------------------------|

Bridge:
F#m Bm F#m Bm C#m Bm C#m Bm

Repeat chorus 
End on the fill on the timing of the intro (listen to the song, you'll
know what it mean)the last stray note and the end is an E(G string 7th fret)

If this is wrong, patch it up and submit it, but it sounds good to me.
Tap to rate this tab
 
# A B C D E F G H I J K L M N O P Q R S T U V W X Y Z