Song name
# A B C D E F G H I J K L M N O P Q R S T U V W X Y Z

Audiogold - You And I tab

Rhythm part
Acoustic Guitar

Intro and verses
Gmaj7
A6

PreChorus
Em9
Aadd9/4
Gadd9
D/F#

Chorus
Bm
D/F#
G
A

Verse

Gmaj7
e|-----2----|
B|-----0----|
G|-----0----|
D|-----4----|
A|-----x----|
E|-----3----|

A6
e|-----2----|
B|-----2----|
G|-----2----|
D|-----2----|
A|-----0----|
E|-----x----|

Pre Chorus
Em9
e|------2------------------------------------------------------------------------|
B|------3------------------------------------------------------------------------|
G|------0------------------------------------------------------------------------|
D|------2------------------------------------------------------------------------|
A|------x------------------------------------------------------------------------|
E|------0------------------------------------------------------------------------|
Aadd9/4
e|------7----------------------------------------------------------------------|
B|------0----------------------------------------------------------------------|
G|------6----------------------------------------------------------------------|
D|------0----------------------------------------------------------------------|
A|------x----------------------------------------------------------------------|
E|------5----------------------------------------------------------------------|
Gadd9
e|------5----------------------------------------------------------------------|
B|------0----------------------------------------------------------------------|
G|------4----------------------------------------------------------------------|
D|------0----------------------------------------------------------------------|
A|------x----------------------------------------------------------------------|
E|------3----------------------------------------------------------------------|
D/F#
e|------x-----------------------------------------------------------------------|
B|------3-----------------------------------------------------------------------|
G|------2-----------------------------------------------------------------------|
D|------0-----------------------------------------------------------------------|
A|------x-----------------------------------------------------------------------|
E|------2-----------------------------------------------------------------------|

Chorus
Bm4
e|------0-----------------------------------------------------------------------|
B|------3-----------------------------------------------------------------------|
G|------2-----------------------------------------------------------------------|
D|------0-----------------------------------------------------------------------|
A|------2-----------------------------------------------------------------------|
E|------x-----------------------------------------------------------------------|
D/F#
e|------x-----------------------------------------------------------------------|
B|------3-----------------------------------------------------------------------|
G|------2-----------------------------------------------------------------------|
D|------0-----------------------------------------------------------------------|
A|------x-----------------------------------------------------------------------|
E|------2-----------------------------------------------------------------------|
G5
e|------x-----------------------------------------------------------------------|
B|------3-----------------------------------------------------------------------|
G|------0-----------------------------------------------------------------------|
D|------0-----------------------------------------------------------------------|
A|------x-----------------------------------------------------------------------|
E|------3-----------------------------------------------------------------------|
A
e|------x-----------------------------------------------------------------------|
B|------x-----------------------------------------------------------------------|
G|------2-----------------------------------------------------------------------|
D|------2-----------------------------------------------------------------------|
A|------0-----------------------------------------------------------------------|
E|------x-----------------------------------------------------------------------|


Link to the video to play along!
http://www.youtube.com/watch?v=T79F2VgbrAA

www.audiogolduk.com
************************************

| /   slide up
| \   slide down
| h   hammer-on
| p   pull-off
| ~   vibrato
| +   harmonic
| x   Mute note
| b   Bend
| pb  Pre-bend
| br  Bend release
| pbr Pre-bend release
| brb Bend release bend

************************************
Tap to rate this tab
 
# A B C D E F G H I J K L M N O P Q R S T U V W X Y Z