Guitaretab - guitar tabs
Song name
# A B C D E F G H I J K L M N O P Q R S T U V W X Y Z

Audioslave - Working Man tab

Band- Audioslave
Song- Working Man

Riff 1

e|------------------|---------------------|
B|------------------|---------------------|
G|------------------|---------------------|
D|------------------|---------------------|
G|----------2-------|------------0--0h2-2-|
B|-0--0--0-------5--|--0--0--0-0----------|

Riff 2
e|------------------|------------------|-----------------|
B|------------------|------------------|-----------------|
G|------------------|------------------|-----------------|
D|------------------|------------------|-----------------|
G|-4---4---4---4----|-2---2---2---2----|---2---2---4---4-|
B|---7---7---7---7--|---5---5---5---5--|-3---3---5---5---|

Riff 3

e|------------------------------------|
B|------------------------------------|
G|------------------------------------|
D|------------------------------0~----|
G|-4-4-4p2p0--4-4-4p2p0---4-2-4----2--|
B|------------------------------------|

Riff 3 Last Time

e|------------------------------------|
B|------------------------------------|
G|------------------------------------|
D|------------------------------------|
G|-4-4-4p2p0--4-4-4p2p0---2-----------|
B|-----------------------------5------|


Solo
[ Tab from: http://www.guitaretab.com/a/audioslave/134406.html ]
As usual with Tom the solo is different at every gig. The 2 times I've heard this
song he played a note on every off beat from the scale used for the solo's in Know
Your Enemy, Shadow On The Sun many more.
This is a solo from a gig in New York, I'm not 100% sure as he uses a whammy to bend
the notes

e|-----20~---------|-----20~----------|------20~----------|-----20~----------|
B|-21~-----19~-----|-21~-----21~------|-21~------19~------|-21~-----17~------|
G|------------19~--|------------------|--------------19~--|------------------|
D|-----------------|------------------|-------------------|------------------|
G|-----------------|------------------|-------------------|------------------|
B|-----------------|------------------|-------------------|------------------|

This is the scale he uses for this solo and a lot of his others.

e|----------|----------|----------|----------|----------|-17-19-20-21-|
B|----------|----------|----------|----------|-17-19-21-|-------------|
G|----------|----------|----------|-18-19-21-|----------|-------------|
D|----------|----------|-18-19-21-|----------|----------|-------------|
G|----------|-17-19-21-|----------|----------|----------|-------------|
B|-17-19-21-|----------|----------|----------|----------|-------------|
Related for Working Man tab
Advertisement will be closed in 10 seconds