Song name
# A B C D E F G H I J K L M N O P Q R S T U V W X Y Z

Audioslave - Set It Off tab

    Audioslave- Set It Off
__________________________________


Intro

e  |-----------------------------------|
B  |-----------------------------------|
G  |-----------------------------------|
D  |-----------------7-----------------| X3
A  |------------/9---------------------|
E  |-0-2-0-2---------------------------|



e  |-----------------------------------|
B  |-----------------------------------|
G  |-----------------------------------|
D  |-----------------------------------| X1
A  |-----------/9-----(7)--------------|
E  |-0-2-0-2------------------0-2-0----|


Verse

e  |-----------------------------------|
B  |-----------------------------------|
G  |-----------------------------------|
D  |-----------------------------------| X3
A  |-----------------------------------|
E  |-2-0-2-x-x-2-0-2-2-0-5-2-0---------|



e  |-----------------------------------|
B  |-----------------------------------|
G  |-----------------------------------|
D  |-----------------------------------| X1
A  |------------------7~---------------|
E  |-2-0-2-x-x-2-0--------5~-----------|


Chorus

e  |-----------------------------------|
B  |-----------------------------------|
G  |-----------------------------------|
D  |----------7------------------------| X3
A  |------/9-----9-7----7-9------------|
E  |-2---------------9-----------------|



e  |-----------------------------------|
B  |-----------------------------------|
G  |-----------------------------------|
D  |-----------------------------------| X1
A  |------/9---7-----------------------|
E  |-2------------5--------------------|
Tap to rate this tab
 
# A B C D E F G H I J K L M N O P Q R S T U V W X Y Z