Song name
# A B C D E F G H I J K L M N O P Q R S T U V W X Y Z

Audiovent - Energy tab

The Energy By: Audiovent
Tabbed by Ben Farlow (Ftballislife32@yahoo.com)

Drop D Tuning (DADGBE)



Intro (Clean) X4

e|---3-2---2-3---3-2---2-3----3~--|
B|-5-----3-----5-----3------1-----|
G|--------------------------------|
D|--------------------------------|
A|--------------------------------|
D|--------------------------------|

Verse 1 - (Heavy Distortion) "Every Now and then...."

e|----------------------------------------------|
B|----------------------------------------------|
G|----------------------------------------------|
D|-2-X-2-2-X-5-5--5-5-5--0-X-0-0--7-7--9-9-9-9--|
A|-2-X-2-2-X-5-5--5-5-5--0-X-0-0--7-7--9-9-9-9--|
D|-2-X-2-2-X-5-5--5-5-5--0-X-0-0--7-7--9-9-9-9--|

 "Outta you and into me..."

e|-----------------------------------------------------------|
B|-----------------------------------------------------------|
G|-----------------------------------------------------------|
D|-2-X-2-2-X-5-5--5-5-5--7-X-7-7--9--13-13-13hb13hb13fb13fb--|
A|-2-X-2-2-X-5-5--5-5-5--7-X-7-7--9--------------------------|
D|-2-X-2-2-X-5-5--5-5-5--7-X-7-7--9--------------------------|

 "So take a look at what..." 

e|----------------------------------------------|
B|----------------------------------------------|
G|----------------------------------------------|
D|-2-X-2-2-X-5-5--5-5-5--0-X-0-0--7-7--9-9-9-9--|
A|-2-X-2-2-X-5-5--5-5-5--0-X-0-0--7-7--9-9-9-9--|
D|-2-X-2-2-X-5-5--5-5-5--0-X-0-0--7-7--9-9-9-9--|


Pre-Chorus Riff - (Clean) "Now that your leavin'..."

e|-0----0----0----0----0----0----0-------|
B|-0----0----0----0----0----0----0----4--|
G|-4----2----4----2----4----2----4----4--|
D|-4----2----4----2----4----2----4----4--|
A|-2----0----2----3----2----0----2----2--|
D|---------------------------------------|


Chorus - (Heavy Distortion) "We are the energy..."

e|----------------------------------------------------------|
B|----------------------------------------------------------|
G|----------------------------------------------------------|
D|-2--2-0-2--2-0-2--2-0-2-5-2-0--7--7-0-7--7-5-5-5-3-5-3-0--|
A|-2--2-0-2--2-0-2--2-0-2-5-2-0--7--7-0-7--7-5-5-5-3-5-3-0--|
D|-2--2-0-2--2-0-2--2-0-2-5-2-0--7--7-0-7--7-5-5-5-3-5-3-0--|

Chorus riff 2 : "Take every thing you need..."

e|----------------------------------------------------------------|
B|----------------------------------------------------------------|
G|----------------------------------------------------------------|
D|-2--2-0-2--2-0-2--2-0-2-5-2-0--7-7-7-7-7-7-7-7-9-9-9-9-9-9-9-9--|
A|-2--2-0-2--2-0-2--2-0-2-5-2-0--7-7-7-7-7-7-7-7-9-9-9-9-9-9-9-9--|
D|-2--2-0-2--2-0-2--2-0-2-5-2-0--7-7-7-7-7-7-7-7-9-9-9-9-9-9-9-9--|

Repeat Chorus riff 1 : "We are the answer to..."

Repeat Chorus riff 2: "Take everything from me"


Palm Mute Riff - "Every now and then I dream...

e|------------------------------------------------------------------|
B|------------------------------------------------------------------|
G|------------------------------------------------------------------|
D|-2-2-2-2-2-2-2-2-5-5-5-5-5-5-5-5-0-0-0-0-0-0-0-0-7-7-7-7-9-9-9-9--|
A|-2-2-2-2-2-2-2-2-5-5-5-5-5-5-5-5-0-0-0-0-0-0-0-0-7-7-7-7-9-9-9-9--|
D|-2-2-2-2-2-2-2-2-5-5-5-5-5-5-5-5-0-0-0-0-0-0-0-0-7-7-7-7-9-9-9-9--|
{_________________________________pm________________________________}

Verse 2:

e|----------------------------------------------------|
B|----------------------------------------------------|
G|----------------------------------------------------|
D|-2-X-2-2-X-5-5--5-5-5--5-7--5-7--5-7--5-7--7-5-4-0--|
A|-2-X-2-2-X-5-5--5-5-5--5-7--5-7--5-7--5-7--7-5-4-0--|
D|-2-X-2-2-X-5-5--5-5-5--5-7--5-7--5-7--5-7--7-5-4-0--|

e|----------------------------------------------|
B|----------------------------------------------|
G|----------------------------------------------|
D|-2-X-2-2-X-5-5--5-5-5--0-X-0-0--7-7--9-9-9-9--|
A|-2-X-2-2-X-5-5--5-5-5--0-X-0-0--7-7--9-9-9-9--|
D|-2-X-2-2-X-5-5--5-5-5--0-X-0-0--7-7--9-9-9-9--|

e|----------------------------------------------|
B|----------------------------------------------|
G|----------------------------------------------|
D|-2-X-2-2-X-5-5--5-5-5--0-X-0-0--7-7--9-9-9-9--|
A|-2-X-2-2-X-5-5--5-5-5--0-X-0-0--7-7--9-9-9-9--|
D|-2-X-2-2-X-5-5--5-5-5--0-X-0-0--7-7--9-9-9-9--|

Repeat Pre-Chorus Riff

Repeat Chorus


Solo-

e|----------------------------------------------------|
B|----------------------------------------------------|
G|-9-7----------9-7--------------------7b-9b---7b-9br~|
D|------7b8r7-5-----7b8r7-5-7-9~---9-9-------9--------|
A|----------------------------------------------------|
D|----------------------------------------------------|

e|----------------------------------------|
B|-------------------------------10b12r~--|
G|-9-7----------9-7-----------------------|
D|------7b8r7-5-----7b8r7-5-7-9-----------|
A|----------------------------------------|
D|----------------------------------------|

e|------------------------------------------------------------|
B|------------------------------------------------------------|
G|-9-7----------9-7--------------------7-9b11r9p7---9b11r9~~--|
D|------7b8r7-5-----7b8r7-5-7-9~---9-9-------9----------------|
A|------------------------------------------------------------|
D|------------------------------------------------------------|

e|-------------------------------|
B|-------------------------------|
G|-9-7----------9-7--------------|
D|------7b8r7-5-----7b8r7-5-7-9--|
A|-------------------------------|
D|-------------------------------|

e|--------------------------------------|
B|-12-12-12-10-12-10-12-10-12-10-12-12--|
G|-9--9--9--7--9--7--9--7--9--7--9--9---|
D|--------------------------------------|
A|--------------------------------------|
D|--------------------------------------|

Repeat Chorus

End with This



e|--------------------------------------------------------------------|
B|--------------------------------------------------------------------|
G|--------------------------------------------------------------------|
D|-5-5-5-5-5-5-5-5-7-7-7-7-7-7-7-7-5-5-5-5-5-5-5-5-7-7-7-7-7-7-7-7-2--|
A|-5-5-5-5-5-5-5-5-7-7-7-7-7-7-7-7-5-5-5-5-5-5-5-5-7-7-7-7-7-7-7-7-2--|
D|-5-5-5-5-5-5-5-5-7-7-7-7-7-7-7-7 5-5-5-5-5-5-5-5-7-7-7-7-7-7-7-7-2--|

*let final note ring and fade out*

Tap to rate this tab
# A B C D E F G H I J K L M N O P Q R S T U V W X Y Z