Song name
# A B C D E F G H I J K L M N O P Q R S T U V W X Y Z

August Burns Red - God Rest Ye Merry Gentlemen tab

Tuning: Drop C of course. (C-G-C-F-A-D)

----------------------------------|
----------------------------------|
----------------------------------|
--------7-7-5---------------5-7---|
-5--5-5-------8-7-5-3-5-7-8-------|
----------------------------------|

---------------------------------------|
---------------------------------------|
---------------------------------------|
--------7-7-5---------------5-7b-5-7-7-|
-5--5-5-------8-7-5-3-5-7-8------------|
---------------------------------------|

---------------------------|
---------------------------|
---------5-7---------------|
-8-5-7-8-----7-5---------5-|
-----------------8-5-7-8---|
---------------------------|

--------------------|
--------------------|
--------------------|
---5-7--8-7-5-------|
-8------------8-7-5-|
--------------------|

Cheers!

--Daniel T.
Tap to rate this tab
# A B C D E F G H I J K L M N O P Q R S T U V W X Y Z