Song name
# A B C D E F G H I J K L M N O P Q R S T U V W X Y Z

August Burns Red - Carpe Diem tab

Title: Carpe Diem
Artist: August Burns Red
Album: Leveler
Tempo = 70
Electric Guitar


Guitar 1 repeat

D |----------------------------------------------------|----|
A |----------------------------------------------------|----|
F |--------0--------0--------0--------0-----0-----0----|----|
C |--5--5-----5--5-----5--5-----5--5-----5-----5-------|----|
G |----------------------------------------------------|----|
C |----------------------------------------------------|----|



Guitar 2 Kicks In

----------------------------------------------------|
--8-----------------8-----------------8-------------|
-----7-----7-----------7-----7-----------7-----7----|
--------5-----------------5-----------------5-------|
----------------------------------------------------|
----------------------------------------------------|


----------------------------------------------------|
--8-----------------8-----------------8-------------|
-----8-----8-----------8-----8-----------8-----8----|
--------5-----------------5-----------------5-------|
----------------------------------------------------|
----------------------------------------------------|


----------------------------------------------------|
--8-----------------8-----------------8-------------|
-----5-----5-----------5-----5-----------5-----5----|
--------5-----------------5-----------------5-------|
----------------------------------------------------|
----------------------------------------------------|


----------------------------------------------------|----|----|
--8-----------------8-----------------8-------------|----|----|
-----7-----7-----------7-----7-----------7-----7----|----|----|
--------5-----------------5-----------------5-------|----|----|
----------------------------------------------------|----|----|
----------------------------------------------------|----|----|


Guitar 3 Repeats
----------------------------------------------------|
--20----------------20----------------20------------|
-----19----19~---------19----19~---------19----19~--|
--------17----------------17----------------17------|
----------------------------------------------------|
----------------------------------------------------|


Guitar 4 


--3--3--3--3--3--3--3--3--3--3--3--3--3s-5--5--5s---|
----------------------------------------------------|
----------------------------------------------------|
----------------------------------------------------|
----------------------------------------------------|
----------------------------------------------------|


--6--6--6--6--6--6--6--6--6--6--6--6--6s-8--8--8s---|
----------------------------------------------------|
----------------------------------------------------|
----------------------------------------------------|
----------------------------------------------------|
----------------------------------------------------|


--10-10-10-10-10-10-10-10-10-10-10-10-10s13-13-13s--|
----------------------------------------------------|
----------------------------------------------------|
----------------------------------------------------|
----------------------------------------------------|
----------------------------------------------------|


--15-15-15-15-15-15-15-15-15-15-15-15-15-15-15-15---||
----------------------------------------------------||
----------------------------------------------------||
----------------------------------------------------||
----------------------------------------------------||
----------------------------------------------------||

Tap to rate this tab
 
# A B C D E F G H I J K L M N O P Q R S T U V W X Y Z