Song name
# A B C D E F G H I J K L M N O P Q R S T U V W X Y Z

August Burns Red - Indonesia tab

Only got the beginning so far dont think i will get much more though haha
feel free to add on

drop c of course

|------------------------------------|
|------------------------------------|
|------------------------------------|
|----------------------------------8-|
|----5----5h6p5---8---5-----8h10p8---|
|-5---5-5-------5---5---5-5----------|
  *   * *       *   *   * *

|--------------------------------------------------|
|--------------------------------------------------|
|---------------------------------------15-14------|
|-------13----12--------12h13p12--------------15/--|
|----------------13--------------13-12-------------|
|-10-10----10-------10-----------------------------|
  *  *      *        *           

|---------------------------------------|
|---------------------------------------|
|---------------------------------------|
|---------------------------------------|
|-----1---1h3p1---5-------1---1h3p1---5-|
|-1-1---1-------1-----1-1---1-------1---|
  * *   *       *     * *   *       *

|--------------------------------------|
|--------------------------------------|
|--------------------------------------|
|-----------------3------------------7-|
|-----3---3h5p3------------3---3h5p3---|
|-3-3---3-------3-----3-3----3---------|
  * *   *       *     * *    *

of course the second guitar is just 5,10,1,3
anyone could figure that out haha

transcribed by Dougy-Fresh
Tap to rate this tab
# A B C D E F G H I J K L M N O P Q R S T U V W X Y Z