Song name
# A B C D E F G H I J K L M N O P Q R S T U V W X Y Z

August Burns Red - Flurries tab

-----------------------------------------------------------------------------
                       August Burns Red - Flurries
-----------------------------------------------------------------------------
Tabbed by:Metalcoreking
Email:Matthessell@live.com

Tuning:CGCFAD

RIFF I
D|--------------------------------------------------------------------------|
A|--------------------------------------------------------------------------|
F|---------1111------------1111--------1111------1111-----------------------|
C|-12121212----121212121212----12129999----999999---------------------------|
G|--------------------------------------------------------------------------|
C|--------------------------------------------------------------------------|
 |                                                                          |
D|----------------------------------------------------------------------(x2)|
A|-------------------------------------------1515------------1919-----------|
F|-----------1414------------1414-------------------------------------------|
C|-9912121212----121212121212----121212121212----121212121212---------------|
G|--------------------------------------------------------------------------|
C|--------------------------------------------------------------------------|

RIFF II
D|-------------------------2---------------9------------10----10----14--(x2)|
A|-----7-----7---7-----3-------3-------7-------10-0--------10----10---------|
F|---7---7-9---9-----4---4---4---4---7---7---0--------7---------------------|
C|-0---------------0---------------0----------------0-----------------------|
G|--------------------------------------------------------------------------|
C|--------------------------------------------------------------------------|

INTRO 

RIFF III
D|--------------------------------------------------------------------------|
A|------------------------------------------------7-----------7h8p7---------|
F|-----------7-------------------7-7h9p7-9/11-4-4---7-4-7h9p7-------7-7-7-7-|
C|/5-4-2h4-5---5-4h5p4-5-4-2h4-5--------------------------------------5-5-5-|
G|--------------------------------------------------------------------5-5-5-|
C|--------------------------------------------------------------------5-5-5-|


BREAKDOWN
D|--------------------------------------------------------------------------|
A|--------------------------------------------------------------------------|
F|--------------------------------------------------------------------------|
C|-0--0-0-0-0--00000--000000--0-0--0-0--------------------------------------|
G|-0--0-0-0-0--00000--000000--0-0--0-0--------------------------------------|
C|-0--0-0-0-0--00000--000000--0-0--0-0--------------------------------------|
 |    x x x x  xxxxx  xxxxxx  x x  x x                          
D|--------------------------------------------------------------------------|
A|--------------------------------------------------------------------------|
F|--------------------------------------------------------------------------|
C|-0--0-0-0-0--00000--000000--0-0-0-0-0-------------------------------------|
G|-0--0-0-0-0--00000--000000--0-0-0-0-0-------------------------------------|
C|-0--0-0-0-0--00000--000000--0-0-0-0-0-------------------------------------|
      x x x x  xxxxx  xxxxxx  x x x x x

RIFF I

RIFF IIII
D|--------------------------------------------------------------------------|
A|---------10--------------10----------10----------10-----------------------|
F|-----------111111----------111111------111111------111111-----------------|
C|-12121212--------12121212--------9999--------9999-------------------------|
G|--------------------------------------------------------------------------|
C|--------------------------------------------------------------------------|
 |                                                                          |
D|----------------------------------------------------------------------(x2)|
A|---------14--------------14------------15------------19-------------------|
F|-----------111111----------111111--------141414--------141414-------------|
C|-12121212--------12121212--------161616--------161616---------------------|
G|--------------------------------------------------------------------------|
C|--------------------------------------------------------------------------|

SOLO
D|--------------------15-14-----------------15-17--21-22-24-24b-22----------|
A|------8-------------------15-----------19---------------------------------|
F|--------11-------------------14--14-19------------------------------------|
C|-7/12------12--12+--------------------------------------------------------|
G|--------------------------------------------------------------------------|
C|--------------------------------------------------------------------------|
 |                                                                          |
D|-22-22-22-21-21-21-17-17--------------------------------------------------|
A|------------------------19-19-19-20-20-20-22-22-20-20-20-19-19-19---------|
F|-----------------------------------------------------------------19-19----|
C|-----------------------------------------------------------------------12-|
G|--------------------------------------------------------------------------|
C|--------------------------------------------------------------------------|
 |                                                                          |
D|--------------------------------------------------------------------------|
A|-------------12h15-------------12h15--------------------------------------|
F|-------11h12-------------11h12--------------------------------------------|
C|-12h14-------------12h14--------------------------------------------------|
G|--------------------------------------------------------------------------|
C|--------------------------------------------------------------------------|
 |                                                                          |
D|-------17-22p17----21p17----19p17----21p17----22--------------------------|
A|-15h19----------19-------19-------19-------19-----------------------------|
F|--------------------------------------------------------------------------|
C|--------------------------------------------------------------------------|
G|--------------------------------------------------------------------------|
C|--------------------------------------------------------------------------|

RIFF II (x4)

RIFF IIII

OUTRO
D|----------------------------------------------------------------------(x2)|
A|-8-----------------------19--20p19----------------------------------------|
F|---11----------11--14-19-----------19-------------------------------------|
C|------12--9-12------------------------------------------------------------|
G|--------------------------------------------------------------------------|
C|--------------------------------------------------------------------------|
 |                                                                          |
D|--------------------------------------------------------------------------|
A|-20p19-------20p19-------20p19-------20p19--------------------------------|
F|-------19----------19----------19----------19-----------------------------|
C|--------------------------------------------------------------------------|
G|--------------------------------------------------------------------------|
C|--------------------------------------------------------------------------|

************************************

| /   slide up
| \   slide down
| h   hammer-on
| p   pull-off
| ~   vibrato
| +   harmonic
| x   Mute note
| b   Bend
| pb  Pre-bend
| br  Bend release
| pbr Pre-bend release
| brb Bend release bend

************************************
Tap to rate this tab
# A B C D E F G H I J K L M N O P Q R S T U V W X Y Z