Song name
# A B C D E F G H I J K L M N O P Q R S T U V W X Y Z

August Burns Red - Echoes tab

d-----------------------------------------------------------------------------|
A-----------------------------------------------------------------------------|
F-----------0----------------0----------------0------------------0------------|
C--3----3------3----3----3------3----3----3------3----3----3------------------|
G----3----3------3----3----3------3----3----3-------3----3----3---------------|
C-----------------------------------------------------------------------------|

d-----------------------------------------------------------------------------|
A-----------------------------------------------------------------------------|
F-----------0----------------0----------------0------------------5------------|
C--0----0------0----0----0------0----0----0------0----0----0------------------|
G----0----0------0----0----0------0----0----0-------0----0----0---------------|
C-----------------------------------------------------------------------------|

The picking pattern is a little sketchy. Its hard to write it out, but play this for the 
first 45 seconds (4 times).
Tap to rate this tab
# A B C D E F G H I J K L M N O P Q R S T U V W X Y Z