Song name
# A B C D E F G H I J K L M N O P Q R S T U V W X Y Z

August Burns Red - Composure tab

                           August Burns Red
                                Intro
                              "Composure"
* = Palm Mute

Drop C

Guitar I
|----------|----------|----------|----------|
|----------|----------|----------|----------|
|--------7-|--------7-|--------7-|--------7-|
|7h8-------|7h8-------|7h8-------|7h8-------|
|---5h7----|---5h7----|---5h7----|---5h7----|
|------00-0|------00-0|------00-0|------00-0|
       ** *       ** *       ** *       ** *
       
Guitar II
|----------|----------|----------|----------|
|----------|----------|----------|----------|
|----------|----------|----------|----------|
|0---------|----------|0---------|-------10-|
|0---------|----------|0---------|-------10-|
|0---------|----------|0---------|-------10-|

Guitar I
|----------|----------|----------|----------|
|----------|----------|----------|----------|
|----------|----------|----------|----------|
|----------|----------|----------|----------|
|7h8----10-|7h8----10-|7h8----10-|7h8----10-|
|---7h888-8|---7h888-8|---7h888-8|---7h888-8|
       ** *       ** *       ** *       ** *

Guitar II
|----------|----------|----------|----------|
|----------|----------|----------|----------|
|----------|----------|----------|----------|
|8---------|----------|8---------|--------5-|
|8---------|----------|8---------|--------5-|
|8---------|----------|8---------|--------5-|

Guitar I
|----------|----------|----------|----------|
|----------|----------|----------|----------|
|--------7-|-------10-|--------7-|-------10-|
|7h8-------|7h8-------|7h8-------|7h8-------|
|---5h7----|---5h7----|---5h7----|---5h7----|
|------00-0|------00-0|------00-0|------00-0|
       ** *       ** *       ** *       ** *

Guitar II
|----------|----------|----------|----------|
|----------|----------|----------|----------|
|----------|----------|----------|----------|
|0---------|----------|0---------|-------10-|
|0---------|----------|0---------|-------10-|
|0---------|----------|0---------|-------10-|

Guitar I
|----------|----------|----------|----------|
|----------|----------|----------|----------|
|----------|----------|----------|----------|
|----------|-------10-|----------|----------|
|7h8----10-|7h8-------|7h8----10-|7h8-------|
|---7h888-8|---7h888-8|---7h888-8|---7h888--|
       ** *       ** *       ** *       ** 

Guitar II
|----------|----------|----------|----------|
|----------|----------|----------|----------|
|----------|----------|----------|----------|
|8---------|----------|8---------|-------10-|
|8---------|----------|8---------|-------10-|
|8---------|----------|8---------|-------10-|
Tap to rate this tab
# A B C D E F G H I J K L M N O P Q R S T U V W X Y Z