Guitaretab - guitar tabs
Song name
# A B C D E F G H I J K L M N O P Q R S T U V W X Y Z
Home / A / Augustana / Fire tab

Augustana - Fire tab

I translated the piano version as best as I could.  Simple yet powerful song. Enjoy.  CT

Tuning: standard, capo 5
[ Tab from: ]
Intro and Verses 1 and 2
e| |-0-0----3-3----0-0---------|
B| |-----------------------3-1-|
G| |---------------------------|
D| |-----------------------3---|
A| |-3----3-2----2-0-----0-----|
E| |---------------------------|

Chorus (repeat Em, F, mute pattern for rest of chorus)

e| |-0-0-1---------------------|
B| |-0-0-1-m-------------------|
G| |-0-0-2-u-------------------|
D| |-2-2-3-t-------------------|
A| |-2-2-3-e-------------------|
E| |-0-0-1---------------------|
Related for Fire tab