Song name
# A B C D E F G H I J K L M N O P Q R S T U V W X Y Z

Aurthohin - Chaite Paro tab

Thing is that,the whole thing given here was played by 2 acoustic guitar.   

Intro

e|-8-8-8--------------------------------------------|
B|-------9-9-9-9-9-9--------------------------------|
G|--------------------------------------------------| x4
D|--------------------------------------------------|
A|--------------------------------------------------|
E|--------------------------------------------------|



Drums come here
e|-8-8-8--------------------------------------------|
B|-------9-9-9-9-9-9--------------------------------|
G|--------------------------------------------------| x4
D|--------------------------------------------------|
A|--------------------------------------------------|
E|--------------------------------------------------|

Then Guitar comes here
e|-8-8-8--------------------------------------------|
B|-------9-9-9-9-9-9--------------------------------|
G|--------------------------------------------------|
D|--------------------------------------------------|  x8
A|--------------------------------------------------|
E|--------------------------------------------------|

Guitar played with intro
e|--4----1------------------------------------------|
B|--6----3---4----6---------------------------------|
G|--6----3---6----8---------------------------------|
D|-----------6----8---------------------------------|
A|--------------------------------------------------|
E|--------------------------------------------------|

 
Verse 1


 Chaite paro abar shei jochona, ghorer siling a shondha tarata
e|-4-------------1---------------------------------------------|
B|-6-------------3-----------------4--------------6------------|
G|-6-------------3-----------------6--------------8------------|
D|---------------------------------6--------------8------------|
A|-------------------------------------------------------------|
E|-------------------------------------------------------------|


Same at,
  Chaite paro sara rat ar sara din hobe je kokhono ar load-shedding
  Chaite paro amar ghare paa rekhe akashta choyar shopno dekhte
  Chaite paro shunte notun ek gaan korbona jekhane tomay ar opoman

verse 2

  Ekmutho golap, aar oi nil akash
e|--------4------------------4----------------------|
B|-4------6------4-----------6----------------------|
G|-6------6------6-----------6----------------------|
D|-6-------------6----------------------------------|
A|--------------------------------------------------|
E|--------------------------------------------------|
  same at
  Aakasher oi chad, othoba ei raat


Then,
Chorus is same as verse 1


Solo at 2.37

e|-----11-11-9-9-----------------------------------------|
B|-9-9-------------13-13-11-11-9-11-13-9-9-11-13-11---11-|
G|-------------------------------------------------------|
D|-------------------------------------------------------|
A|-------------------------------------------------------|
E|-------------------------------------------------------|

e|-----11-11-9-9------------------------------------|
B|-9-9-----------13-13-11-11-9-11-13-9-9-9-11-------|
G|--------------------------------------------10-8--|
D|--------------------------------------------------|
A|--------------------------------------------------|
E|--------------------------------------------------|

e|-13-13-13-13-11-11-11--------------------13-13-13-13-15-15-15---------------------|
B|----------------------13-13-13-13-13-13-----------------------13-13-13-13-13-13---|
G|----------------------------------------------------------------------------------|
D|----------------------------------------------------------------------------------|
A|----------------------------------------------------------------------------------|
E|----------------------------------------------------------------------------------|
-
e|-13-13-13-13-11-11-11----------------------9-9-------11-11-11----|
B|----------------------13-13-13-13-11-13--------13-13----------9--|
G|-----------------------------------------------------------------|
D|-----------------------------------------------------------------|
A|-----------------------------------------------------------------|
E|-----------------------------------------------------------------|


  Guitar can be played with solo like below
e|--------4------------------4----------------------|
B|-4------6------4-----------6----------------------|
G|-6------6------6-----------6----------------------|
D|-6-------------6----------------------------------|
A|--------------------------------------------------|
E|--------------------------------------------------|


Thats all.
The order of the song will be found out while playing.
Tap to rate this tab
 
# A B C D E F G H I J K L M N O P Q R S T U V W X Y Z