Song name
# A B C D E F G H I J K L M N O P Q R S T U V W X Y Z

Aus-rotten - Xenophobia tab

intro

E------------------|
B------------------|
G------------------|
D--3---------------|
A--3--"LET RING"---|
E--1---------------|

part 1 (repet a lot of times)

E----------------------------------------------------|
B----------------------------------------------------|
G----------------------------------------------------|
D--3-3-3/5-6-6--3-3-3/6-5--3-3-3/5-6-----------------|
A--3-3-3/5-6-6--3-3-3/6-5--3-3-3/5-6-----------------|
E--1-1-1/3-4-4--1-1-1/4-3--1-1-1/3-4-0-4^4^-0-4^-4^--|

part 2 (repeat a lot of times)

E----------------------------------------------------|
B----------------------------------------------------|
G--5-5/3-5-7/8-7/8-----------------------------------|
D--5-5/3-5-7/8-7/8-----------------------------------|
A--3-3/1-3-5/6-5/6-----------------------------------|
E----------------------------------------------------|



•mxggot•
Tap to rate this tab
 
# A B C D E F G H I J K L M N O P Q R S T U V W X Y Z