Song name
# A B C D E F G H I J K L M N O P Q R S T U V W X Y Z

Austin Nix - Love tab

-------------------------------------------------------------------------------
                             Love – Austin Nix
-------------------------------------------------------------------------------
Tabbed by: Coltlev96
E-mail:Coltlev96@gmail.com

Tuning: Standard

e|--------------------------------------------------------------------------|
B|------3-------3-------3-------3------------3-------3-------3---------3----|
G|----2---2---2---2---2---2---2---2--------2---2---2---2---2---2-----2--2---|
D|--0-------0-------0-------0-------0---------------------------------------|
A|--------------------------------------2--------2-------2--------2-------2-|
E|--------------------------------------------------------------------------|

e|------------------------------------|
B|------3-------3--------3--------3---|
G|----2---2---2---2----2---2----2---2-|
D|------------------------------------|
A|--0-------0-------0---------0-------|
E|------------------------------------|

That’s basically it, through the whole song it goes like that. But in between verses I
like to put my artistic spin on things. Play the bottom part after the top part then
start over and you can put the words to the chords. If you have any additions please 
contact me at coltlevb96@gmail.com
e|-------------------------------------------------------------------------|
B|-------3------3-------------3----3---------------------------------------|
G|-----2---2----2-----------2---2--2---------------------------------------|
D|-------------------------------------------------------------------------|
A|--2-----------2--------0---------0---------------------------------------|
E|-------------------------------------------------------------------------|
Tap to rate this tab
# A B C D E F G H I J K L M N O P Q R S T U V W X Y Z