Avalanche City - How Long tab

-------------------------------------------------------------------------------
			     How Long Ė Avalanche City
-------------------------------------------------------------------------------
First tab so sorry if I didnít get it just right. Canít quite figure out the last
few notes in the chorus because theyíre too soft to hear in the song.
Itís a pretty slow song but listen to it to get the pattern right :)

Peace

Tabbed by: mikki93
Email: shoe.mikki@live.com

Tuning: standard
Capo 2

Intro
e|-4---4--2----------------|-4---4-2-----------------|
B|--0--0---0-40--242-0--4--|--0--0--0-40--24200------|
G|-1-1--------------1------|-1-1---------------------|
D|--------4------1---------|-------4------1----------|
A|-------------------------|---------------------2---|
E|-------------------------|-------------------------|

Verse 1

e|-4---4--2----------------|-4---4-2-----------------|
B|--0--0---0-40--242-0--4--|--0--0--0-40--24200------|
G|-1-1--------------1------|-1-1---------------------| x2
D|--------4------1---------|-------4------1-----1----|
A|-------------------------|---------------------2---|
E|-------------------------|-------------------------|

Chorus
e|------2---------|-----------------|
B|-4--4---4-24200-|-4--4-2-0--------|
G|-1--------------|-1---------------|
D|------4---------|------4----------|
A|----------------|-----------------|
E|----------------|-----------------|

Verse 2

e|-4---4--2----------------|-4---4-2------------------|
B|--0--0---0-40--242-0--4--|--0--0--0-40--242-0-------|
G|-1-1--------------1------|-1-1-------------1--------| x2
D|--------4------1---------|-------4------1------1----|
A|-------------------------|----------------------2---|
E|-------------------------|--------------------------|

Chorus
e|------2---------|-----------------|
B|-4--4---4-24200-|-4--4-2-0--------|
G|-1--------------|-1---------------| x2
D|------4---------|------4----------|
A|----------------|-----------------|
E|----------------|-----------------|

Verse 3

e|-4---4--2----------------|-4---4-2------------------|
B|--0--0---0-40--242-0--4--|--0--0--0-40--242-0-------|
G|-1-1--------------1------|-1-1-------------1--------| x2
D|--------4------1---------|-------4------1------1----|
A|-------------------------|----------------------2---|
E|-------------------------|--------------------------|

Chorus
e|------2---------|-----------------|
B|-4--4---4-24200-|-4--4-2-0--------|
G|-1--------------|-1---------------| x2
D|------4---------|------4----------|
A|----------------|-----------------|
E|----------------|-----------------|


************************************

| /   slide up
| \   slide down
| h   hammer-on
| p   pull-off
| ~   vibrato
| +   harmonic
| x   Mute note
| b   Bend
| pb  Pre-bend
| br  Bend release
| pbr Pre-bend release
| brb Bend release bend

************************************
Tap to rate this tab
 
# A B C D E F G H I J K L M N O P Q R S T U V W X Y Z