Guitaretab - guitar tabs
Song name
# A B C D E F G H I J K L M N O P Q R S T U V W X Y Z

Avantasia - Looking Glass tab

P.M    --       ---    ---        ---       ---    ---
E-----------------------------------------------------------|
A---3--3-3-------3-3----2-2-----3--3-3-------3-3----2-2-----|
D---5------5-4-------4------3---5------5-4-------4------3---|
G-----------------------------------------------------------|
B-----------------------------------------------------------|
E-----------------------------------------------------------|

P.M    ---       ---    -------------------------|
E-------------------------------------2----------|
A---3--3-3-------3-3----2-2-----2-----4-----2----|
D---5------5-4-------4------3---4-----------4----|
G------------------------------------------------|
B------------------------------------------------|
E------------------------------------------------|
[ Tab from: http://www.guitaretab.com/a/avantasia/140199.html ]
P.M    ---       ---    ---        ---       ---    ---
E-----------------------------------------------------------|
A---3--3-3-------3-3----2-2-----3--3-3-------3-3----2-2-----|
D---5------5-4-------4------3---5------5-4-------4------3---|
G-----------------------------------------------------------|
B-----------------------------------------------------------|
E-----------------------------------------------------------|

P.M    ---       ---    ---              ---------|
E-------------------------------------------------|
A---3--3-3-------3-3----2-2-----2--------2-2---2--|
D---5------5-4-------4------3---4------------3----|
G-------------------------------------------------|
B-------------------------------------------------|
E-------------------------------------------------|

This is the best I can do.
Related for Looking Glass tab