Song name
# A B C D E F G H I J K L M N O P Q R S T U V W X Y Z

Avenged Sevenfold - Scream tab

-------------------------------------------------------------------------------
			                         Scream - Avenged Sevenfold
-------------------------------------------------------------------------------
Tabbed by:a7xsYn123
Email:

                       * This solo is VERY hard *
                       * Sorry that theres no rhythm guitar*

Tuning:Drop D tuning down 1/2 step

eb|-17--16--------16--17--16---------16--17--16---------16--17--16---------16-|
Bb|-------18----18-----------18----18-----------18----18-----------18----18---|
Gb|----------19-----------------19-----------------19-----------------19------|
Db|---------------------------------------------------------------------------|
Ab|---------------------------------------------------------------------------|
Db|---------------------------------------------------------------------------|

eb|-17--16---------16--17--16---------16--17--16----------16-17-16---------16-|
Bb|-------17----17------------17---17------------17----17----------17----17---|
Gb|----------18-----------------18------------------18----------------18------|
Db|---------------------------------------------------------------------------|
Ab|---------------------------------------------------------------------------|
Db|---------------------------------------------------------------------------|

eb|-18-17---------17-18-17----------17-18-17---------17-18-17----------17-----|
Bb|------18----18----------18----18---------18----18----------18----18--------|
Gb|---------19----------------19---------------19----------------19-----------|
Db|---------------------------------------------------------------------------|
Ab|---------------------------------------------------------------------------|
Db|---------------------------------------------------------------------------|

eb|-16--15--14----14--15--16--15--14----14--15--17--16--15----15--16--17~~~~--|
Bb|------------17--------------------17--------------------17-----------------|
Gb|---------------------------------------------------------------------------|
Db|---------------------------------------------------------------------------|
Ab|---------------------------------------------------------------------------|
Db|---------------------------------------------------------------------------|

eb|-17-16----------16-17-16----------16-17-16----------16-17-16----------16---|
Bb|-------18----18----------18----18----------18----18----------18----18------|
Gb|----------19----------------19----------------19----------------19---------|
Db|---------------------------------------------------------------------------|
Ab|---------------------------------------------------------------------------|
Db|---------------------------------------------------------------------------|

eb|-17-16----------16-17-16----------16-17-16----------16-17-16----------16---|
Bb|-------17----17----------17----17----------17----17----------17----17------|
Gb|----------18----------------18----------------18----------------18---------|
Db|---------------------------------------------------------------------------|
Ab|---------------------------------------------------------------------------|
Db|---------------------------------------------------------------------------|

eb|-18--17----------17--18--17----------17--18--17--------17--18--17--------17|
Bb|--------18----18------------18----18-----------18----18----------18----18--|
Gb|-----------19------------------19-----------------19----------------19-----|
Db|---------------------------------------------------------------------------|
Ab|---------------------------------------------------------------------------|
Db|---------------------------------------------------------------------------|

eb|-16--15--14---14--15--16--15--14----14-15/21--20--18--17--18--20-21~~~(21)\|
Bb|------------17-------------------17----------------------------------------|
Gb|---------------------------------------------------------------------------|
Db|---------------------------------------------------------------------------|
Ab|---------------------------------------------------------------------------|
Db|---------------------------------------------------------------------------|

*Repeat guitars 1 and 2 4 times 

Guitar 1
eb|---------12---13-----12---13---13/17------------12-----12/18---17~~~-------|
Bb|-12/15------------15-------------------14---15-----14----------------------|
Gb|---------------------------------------------------------------------------|
Db|---------------------------------------------------------------------------|
Ab|---------------------------------------------------------------------------|
Db|---------------------------------------------------------------------------|

Guitar 2
eb|-------------------------------12/13~~-------------------------------------|
Bb|--------------10----------10---------------------------12/15---14~~--------|
Gb|-7/10----12------10--12----------------9----10--12-9-----------------------|
Db|---------------------------------------------------------------------------|
Ab|---------------------------------------------------------------------------|
Db|---------------------------------------------------------------------------|

Guitar 1
eb|-18--15-----------------15--16--12---------------13------------------------|
Bb|--------15-----------15------------12--13--14-------14---------------------|
Gb|-----------15-----15--------------------------14---------------------------|
Db|---------------17----------------------------------------------------------|
Ab|---------------------------------------------------------------------------|
Db|---------------------------------------------------------------------------|

Guitar 2
eb|-15--10------------------10--12--------------------------------------------|
Bb|--------11------------11---------------------------------------------------|
Gb|-----------12-----12------------13--13-14--14----12--9---------------------|
Db|---------------12-----------------------------11---------------------------|
Ab|---------------------------------------------------------------------------|
Db|---------------------------------------------------------------------------|

|(8)ghost note
| /  slide up
| \  slide down
| h  hammer-on
| p  pull-off
| ~  vibrato
| +  harmonic
| x  Mute note
Tap to rate this tab
# A B C D E F G H I J K L M N O P Q R S T U V W X Y Z