Song name
# A B C D E F G H I J K L M N O P Q R S T U V W X Y Z

Avenged Sevenfold - Unholy Confessions tab

Artist:Avenged Sevenfold
Song:Unholy Confessions
Album:City of Evil

Drop D Tuning

Intro: Guitar 1
E|------------------------------------------------------------------|
B|------------------------------------------------------------------|
G|------------------------------------------------------------------|
D|------------------------------------------------------------------|
A|-00-5-0-7-0-8-0-10-0-8-0-7h8p7-----88-10-0-8-0-7~--77-7-0-8-0-----|
D|-00----------------------------10--88--------------77---------10~-|
   ..                                ..              ..
E|------------------------------------|x1
B|------------------------------------|
G|------------------------------------|
D|------------------------------------|
A|-00-5-0-7-0-8-0-10-0-8-0-7h8p7------|
D|00----------------------------10----|

Intro End: Both Guitars
E|-----------------------|x1
B|-----------------------|
G|-----------------------|
D|-----------------------|
A|-88x--77x--------------|
D|-88x--77x--------------|

Post Intro: Guitar 1 (Harmonized)
E|----------------------------------|
B|----------------------------------|
G|----------------------------------|
D|----------------------------------|
A|-00-5-0-7-0-8-0-10-0-8-0-7h8p7----|
D|-00----------------------------10-|
PM ..

E|------------------------------------------|
B|------------------------------------------|
G|------------------------------------------|
D|------------------------------------------|
A|-88-10-0-8-0-7~-77-7-0-8-0----------------|
D|-88-------------77---------10~------------|
PM ..             ..

E|------------------------------------|x1
B|------------------------------------|
G|------------------------------------|
D|------------------------------------|
A|-00-5-0-7-0-8-0-10-0-8-0-7h8p7------|
D|-00----------------------------10---|
PM ..

E|----------------------|x1
B|----------------------|
G|----------------------|
D|----------------------|
A|-88x--77x-------------|
D|-88x--77x-------------|

Pre-Versse:
|-----------------|x1
|-8-8-10-10-6-6-4-|
|-7-7--9--9-5-5-3-|
|-----------------|
|-----------------|
|-----------------|

Verse:
E|----------------------------------------------------------------------|x2
B|--------------13-13\11--11\10-10/11-----------------------------------|
G|-7------------12-12\10--10\-9--9/10-----------------------------------|
D|-7-----0-----------------------------8-----9------5-7/7-7\3-3\2-------|
A|-5-----0-----------------------------8-----9------5-7/8-8\5-5\4-------|
D|---000-0-----------------------------8-888-9--------------------------|
PM   ...

E|------------------------------------------|x1
B|------------------------------------------|
G|------7-----------------3------5----5-----|
D|------7-----------------3------5----5-----|
A|------5------------1111-1-3333-3-33-3-----|
D|-0000---00000-0230------------------------|
PM ....   ..... .... ....   ....   ..

E|----------------------------------------------------------------------|x2
B|----------------------------------------------------------------------|
G|-7--------------------------------------------------------------------|
D|-7-----0------10-10\8---8\7-5/7------8-----9------5-7/7-7\3-3\2-------|
A|-5-----0------12-12\10-10\8-7/8------8-----9------5-7/8-8\5-5\4-------|
D|---000-0-----------------------------8-888-9--------------------------|
PM   ...                                 ...

Bridge:
E|----------------------|x4
B|----------------------|
G|----------------------|
D|----------------------|
A|-00-00000-------------|
D|-00-00000-------------|
PM .. .....

Verse:
E|--------------------------------------------------------|x2
B|--------------------------------------------------------|
G|--------------------------------------------------------|
D|-----------------------------------------------<6>~-----|
A|-00-7-0-8---7-0-8---5-4~--00-7r-8r-12r-13r-12r----------|
D|-00-------0-------0-------00----------------------------|
PM ..       .       .       ..

Chorus:
E|-----------------------------------------------------------------------|
B|-----------------------------------------------------------------------|
G|--7-77--------5---------------------------3-3-3-3-3-3-33---7-77--------|
D|--7-77-0--2-3-5---3-2h3p2-0-----3x-3-3-30-3-3-3-3-3-3-33---7-77-0--2-3-|
A|--5-55-0--2-3-3-------------3---3x-3-3-30-1-1-1-1-1-1-11---5-55-0--2-3-|
D|-------0--2-3-------------------3x-3-3-30-----------------------0--2-3-|

E|----------------------------------|
B|----------------------------------|
G|5-5-5-5-5-5-55--------------------|
D|5-5-5-5-5-5-55--3x-3-3-33-55x-0-00|
A|3-3-3-3-3-3-33--3x-3-3-33-55x-3-33|
D|----------------3x-3-3-33-55x-3-33|

E|-----------------------------------------------------------------------|
B|-----------------------------------------------------------------------|
G|--7-77--------5---------------------------3-3-3-3-3-3-33---7-77--------|
D|--7-77-0--2-3-5---3-2h3p2-0-----3x-3-3-30-3-3-3-3-3-3-33---7-77-0--2-3-|
A|--5-55-0--2-3-3-------------3---3x-3-3-30-1-1-1-1-1-1-11---5-55-0--2-3-|
D|-------0--2-3-------------------3x-3-3-30-----------------------0--2-3-|

E|----------------------------------|
B|----------------------------------|
G|5-5-5-5-5-5-55--------------------|
D|5-5-5-5-5-5-55--3x-3-3-33-55x-0-0-|
A|3-3-3-3-3-3-33--3x-3-3-33-55x-3-3-|
D|----------------3x-3-3-33-55x-3-3-|

Solo:
E|------------------------------------------------------------------|x2
B|------------------------------------------------------------------|
G|------------------------------------------------------------------|
D|------------------------------------------------------------------|
A|-8-7-8~---5-4-5~---7-8-7~---4-5-4~---0-1-4-3-1-0---4-3-4~---------|
D|------------------------------------------------------------------|

Intro Riff:
E|------------------------------------------------------------------|
B|------------------------------------------------------------------|
G|------------------------------------------------------------------|
D|------------------------------------------------------------------|
A|-00-5-0-7-0-8-0-10-0-8-0-7h8p7-----88-10-0-8-0-7~--77-7-0-8-0-----|
D|-00----------------------------10--88--------------77---------10~-|
   ..                                ..              ..
E|------------------------------------|x1
B|------------------------------------|
G|------------------------------------|
D|------------------------------------|
A|-00-5-0-7-0-8-0-10-0-8-0-7h8p7------|
D|00----------------------------10----|

E|-----------------------|x1
B|-----------------------|
G|-----------------------|
D|-----------------------|
A|-88x--77x--------------|
D|-88x--77x--------------|

Intro Riff (Harmonized)
E|-------------------------------------------------------------------------|
B|-------------------------------------------------------------------------|
G|-------------------------------------------------------------------------|
D|-------------------------------------------------------------------------|
A|-00-5-0-7-0-8-0-10-0-8-0-7h8p7-----88-10-0-8-0-7~-77-7-0-8-0-------------|
D|-00----------------------------10--88-------------77---------10~---------|
PM ..                                ..             ..                   x4

Bridge:
E|-----------|x6
B|-----------|
G|-----------|
D|--0-0-0-0--|
A|--0-0-0-0--|
D|--0-0-0-0--|
PM  . . . .

E|-----------------------------|
B|-----------------------------|
G|-----------------------------|
D|-0-12\11-0-10\9\8-0-7-0-6\5--|x2
A|-0-12\11-0-10\9\8-0-7-0-6\5--|
D|-0-12\11-0-10\9\8-0-7-0-6\5--|

Verse:
E|----------------------|x4
B|----------------------|
G|----------------------|
D|----------------------|
A|-00-00000-------------|
D|-00-00000-------------|
PM .. .....

E|--------------------------------------------------------|x2
B|--------------------------------------------------------|
G|--------------------------------------------------------|
D|-----------------------------------------------<6>~-----|
A|-00-7-0-8---7-0-8---5-4~--00-7r-8r-12r-13r-12r----------|
D|-00-------0-------0-------00----------------------------|
PM ..       .       .       ..

Bridge:
E|------------------------------|x4
B|------------------------------|
G|------------------------------|
D|------------------------------|
A|------------------------------|
D|-0-11^-0-10^-0-8^-0-7^-0-5^---|

E|------------------------------|
B|------------------------------|
G|------------------------9\6---|
D|------------------------x-x---|
A|------------------------7\4---|
D|-0-5^-0-5^-0-5~-0-3-0---------|

Chorus:
E|-----------------------------------------------------------------------|
B|-----------------------------------------------------------------------|
G|--7-77--------5---------------------------3-3-3-3-3-3-33---7-77--------|
D|--7-77-0--2-3-5---3-2h3p2-0-----3x-3-3-30-3-3-3-3-3-3-33---7-77-0--2-3-|
A|--5-55-0--2-3-3-------------3---3x-3-3-30-1-1-1-1-1-1-11---5-55-0--2-3-|
D|-------0--2-3-------------------3x-3-3-30-----------------------0--2-3-|

E|----------------------------------|
B|----------------------------------|
G|5-5-5-5-5-5-55--------------------|
D|5-5-5-5-5-5-55--3x-3-3-33-55x-0-00|
A|3-3-3-3-3-3-33--3x-3-3-33-55x-3-33|
D|----------------3x-3-3-33-55x-3-33|

E|-----------------------------------------------------------------------|
B|-----------------------------------------------------------------------|
G|--7-77--------5---------------------------3-3-3-3-3-3-33---7-77--------|
D|--7-77-0--2-3-5---3-2h3p2-0-----3x-3-3-30-3-3-3-3-3-3-33---7-77-0--2-3-|
A|--5-55-0--2-3-3-------------3---3x-3-3-30-1-1-1-1-1-1-11---5-55-0--2-3-|
D|-------0--2-3-------------------3x-3-3-30-----------------------0--2-3-|

E|----------------------------------|
B|----------------------------------|
G|5-5-5-5-5-5-55--------------------|
D|5-5-5-5-5-5-55--3x-3-3-33-55x-0-0-|
A|3-3-3-3-3-3-33--3x-3-3-33-55x-3-3-|
D|----------------3x-3-3-33-55x-3-3-|

Outro:
E|------------------------------|x8
B|------------------------------|
G|------------------------------|
D|------------------------------|
A|------------------------------|
D|-0-11^-0-10^-0-8^-0-7^-0-5^---|

Ending:
E|-----------|x1
B|-----------|
G|-----------|
D|-----------|
A|-0-0-------|
D|-0-0-------|
PM . .

|x = Kill String (stop from ringing)
|. = Palm Mute
|h = Hammer-On
|p = Pull-off
|\ = Slide Down
|/ = Slide Up
|^ = Bend Down

The hardest part of the song is the intro... It's hard to get the timming right with the 
but listen to the song. Everything else is pretty easy.... Hope you have fun I'm 99.9% 
this is correct, I play it all the time and it sounds right. Please vote, and have fun with it!
Tap to rate this tab
 
# A B C D E F G H I J K L M N O P Q R S T U V W X Y Z