Song name
# A B C D E F G H I J K L M N O P Q R S T U V W X Y Z

Avenged Sevenfold - Seize The Day tab

-------------------------------------------------------------------------------

-------------------------------------------------------------------------------
Tabbed by: Ads
Email:

Tuning: standard

The tab starts after the little bit he plays when shadows is singing...
my 1st tab...if you want to be brutal feel free...

e|---------------------------------------------------------------------------|
B|--18~--18--18b20--17--17~--------------------------------------------------|
G|---------------------------19--21--22--22--19-19-19----14--15--17--19-19~--|
D|---------------------------------------------------------------------------|
A|---------------------------------------------------------------------------|
E|---------------------------------------------------------------------------|

e|-----------------------------18--18-17--20--17~-17-17-17-15-15--15~--------|
B|--------------------------------------18-----------------------------------|
G|--19-19-19-17-21-17-22-17--------------------------------------------------|
D|---------------------------------------------------------------------------|
A|---------------------------------------------------------------------------|
E|---------------------------------------------------------------------------|

e|--------------------------------------------------------------------------------|
B|--18--20--20b22rb20b22----15---15-15-15-15-15------------------------------  ---|
G|--------------------------------------------------------------------------------|
D|--------------------------------------------------------------------------------|
A|--------------------------------------------------------------------------------|
E|--------------------------------------------------------------------------------|

e|--(FAST, USE TREMELO TO PICK THE NEXT NOTES A FEW TIMES EACH)|
B|--13-10--------------------------------------------------------------------|
G|-------12-10--------10-------------14--15--17--19-19~---19-19-19-17-21-17--|
D|------------12-10-12--12-10-12---------------------------------------------|
A|---------------------------------------------------------------------------|
E|---------------------------------------------------------------------------|

e|---------18--18~--17--17---17~--17h18p17--15-------------------------------|
B|----------------------------------------------15--17-18~-15---15-----------|
G|-22-17------------------------------------------------------14-------14----|
D|---------------------------------------------------------------------------|
A|---------------------------------------------------------------------------|
E|---------------------------------------------------------------------------|

e|-------------------------------------------------------------------13+ ----|
B|---------------------------------------------------------------------------|
G|-15-17-19-19~-------19-19-19--17-17--15-15--14-14--15-15-14----------------|
D|------------------------------------------------------------15-------------|
A|---------------------------------------------------------------------------|
E|---------------------------------------------------------------------------|


             ENJOY!!! any helpful feedback email me at Ads_c_b@yahoo.co.uk

| /  slide up
| \  slide down
| h  hammer-on
| p  pull-off
| ~  vibrato
| +  harmonic
| x  Mute note
============================================
Tap to rate this tab
 
# A B C D E F G H I J K L M N O P Q R S T U V W X Y Z