Guitaretab - guitar tabs
Song name
# A B C D E F G H I J K L M N O P Q R S T U V W X Y Z

Avenged Sevenfold - Seize The Day tab

Drop D
/slide up
\slide down
*atrificial harmonic
^bend full step
^- bend half step
^^bend up 1 half step
~virbrato
(17)pick while bent
p pull off

This is my first Tab i think it's correct


|--/13-12-----15---------------------------------------------------------|
|---------13-----13------------------^17~~~(17)-(17)-(17)~~(17)-(17)-(17)|
|--------------------12--15-15-14-14-------------------------------------|
|------------------------------------------------------------------------|
|------------------------------------------------------------------------|
|------------------------------------------------------------------------|

|------------------------------------------------------------------------|
|^^17-17~~~----13--15--^^15--^^15---15--13--15--10--11--13-13/15---------|
|------------------------------------------------------------------------|
|------------------------------------------------------------------------|
|------------------------------------------------------------------------|
|------------------------------------------------------------------------|
[ Tab from: http://www.guitaretab.com/a/avenged-sevenfold/138595.html ]
|----------------------18----18-17----^^17--17-17-17-17-15-15-15~~~-13-15|
|---------15----18--15----15-------18------------------------------------|
|---15-------15----------------------------------------------------------|
|15----17----------------------------------------------------------------|
|------------------------------------------------------------------------|
|------------------------------------------------------------------------|

|^15--^15----10----10------13--10----------------------------------------|
|---------^13---13----^13---------13--10--------13--10-------------------|
|----------------------------------------12--10--------12--10------------|
|-------------------------------------------------------------12--10--12~|
|------------------------------------------------------------------------|
|------------------------------------------------------------------------|

|------------------------------13-------^-17--17~-13-15--^15-^15-15p13-^13-|
|--------------------------11-----------------------------------------15---|
|---------------------10-----10--15----------------------------------------|
|------------------------12------------------------------------------------|
|12/13/15/17/20---12/13----------------------------------------------------|
|--------------------------------------------------------------------------|

|10--12-13-10-----10---6--8--8/10---10-10-10\8-8\6--6-5-6-5-6p5----*6-----|
|--------------10-----------------------------------------------6---------|
|-------------------------------------------------------------------------|
|-------------------------------------------------------------------------|
|-------------------------------------------------------------------------|
|-------------------------------------------------------------------------|
Related for Seize The Day tab
×
Seize The Day