Guitaretab - guitar tabs
Song name
# A B C D E F G H I J K L M N O P Q R S T U V W X Y Z

Avenged Sevenfold - Lost tab

-------------------------------------------------------------------------------
			     "Lost" solo --- Avenged Sevenfold
-------------------------------------------------------------------------------


Tabbed by: [travis]


Tuning: Drop D: D A D G B E (low to high)


This is the solo at the end of "Lost."
The chords for the rhythm part are:


   F5  C5  G5  Bb5  (in order)
G|-----5--------3-|
D|-3---5---5----3-|
A|-3---3---5----1-|
D|-3-------5------|


Play those chords under the solo.
The last 5 seconds are little riffs.

Tuning: Drop D: D A D G B E (low to high)


There's a lot of slides towards the end
of the solo.


Key of song: F Major.


Legend:

h = hammer on
b = bend
p = pull off
() = note barely heard, or bring bent note back to normal note.
/ = slide up
\ = slide down
__ = hold bend
~ = vibrato
1 = full step bend
.5 = half step bend
1.5 = 1 and a half step bend
1h2p1 = do the phrase with one pick
* = pinch harmonic
 


Guitar 1:
e|-13-----------------------------------------------15h17h18p17~~~~~15p13p12---13-12-13-(13)h/15~|
B|----13-----13----------------------------15h17h18----------------------------------------------|
G|-------10-----12----------------------15-------------------------------------------------------|
D|-----------------10----------------15----------------------------------------------------------|
A|--------------------12~~~~~~~(12)/-------------------------------------------------------------|
D|-----------------------------------------------------------------------------------------------|


Guitar 1:
                                                                        1____
e|-(15)~~~~~~~~~\--12h/15--17----18----15-----------------------------------------|
B|----------------------------------------15----17--18----15----------------------|
G|-----------------------------------------------------------15~~~~~~~17b----(17)-|
D|--------------------------------------------------------------------------------|
A|--------------------------------------------------------------------------------|
D|--------------------------------------------------------------------------------|


Guitar 1: 
                                                    1______
e|----------------------------------------------------------------15-13----17-13----15-13-|
B|-----------------15--------17--------17---------17b~~~~~~(17)\--------13-------13-------|
G|-15---17--15--------15--------15--------15----------------------------------------------|
D|-------------15--------15--------15--------15-------------------------------------------|
A|----------------------------------------------------------------------------------------|
D|----------------------------------------------------------------------------------------|


Guitar 1:
e|----------------------------13-12----15--------13-12----------------|
B|-13-------------------------------13----13-----------13-------------|
G|----14~~~~~~~~-----------------------------12-----------12~~~~~~~~--|
D|---------------15---------------------------------------------------|
A|------------------15-13-12------------------------------------------|
D|--------------------------------------------------------------------|


Guitar 1:
                          .5__          1__          1_______
e|-----------------------17b--(17)----18b--(18)--------------------|
B|--------------------15-----------15--------------18b~~~~~~~(18)\-|
G|-----------------15---------------------------15-----------------|
D|-14----12-14h/17-------------------------------------------------|
A|----15-----------------------------------------------------------|
D|-----------------------------------------------------------------|

Guitar 1:
e|-------------------------15-17h18p17p15----------------------------------------------|
B|----------------15h17h18----------------18-17h18p17----------------------------------|
G|-------15-17h18-------------------------------------19p18p17---15h17h19p17--16h17h19-|
D|-17-17-------------------------------------------------------------------------------|
A|-------------------------------------------------------------------------------------|
D|-------------------------------------------------------------------------------------|
[ Tab from: http://www.guitaretab.com/a/avenged-sevenfold/160880.html ]
Guitar 1:
e|----------------------------18----17-18-20h/22-----20p18p17---(17)\8--(8)/13--13p\5-|
B|-17h18p17----20p18p17h18h20----18---------------------------------------------------|
G|----------19------------------------------------------------------------------------|
D|------------------------------------------------------------------------------------|
A|------------------------------------------------------------------------------------|
D|------------------------------------------------------------------------------------|

Guitar 1:
e|-5---(5)/15--15p\13--13-----12---------17-----17p\15~~~~~~~~~~~~(15)\-|
B|----------------------------------------------------------------------|
G|-------------------------------12h/17-----17--------------------------|
D|----------------------------------------------------------------------|
A|----------------------------------------------------------------------|
D|----------------------------------------------------------------------|

Guitar 1:
                                          .5______________
e|-12h/13--14--15---(15)\--15h/17----15--17b~~~~~~~~~~~~~~(17)----15-17--18-|
B|-------------------------------------------------------------15-----------|
G|--------------------------------------------------------------------------|
D|--------------------------------------------------------------------------|
A|--------------------------------------------------------------------------|
D|--------------------------------------------------------------------------|

Guitar 1:
e|-(18)\--18h/20----18--20h/22~~~~~~~~~~~~22--22p\20--20\-----13h/17-----17h/20-|
B|------------------------------------------------------------------------------|
G|---------------------------------------------------------14---------17--------|
D|------------------------------------------------------------------------------|
A|------------------------------------------------------------------------------|
D|------------------------------------------------------------------------------|

Guitar 1:
e|----13h/17-----17h/20\-17h/20p\17\-----12h/13---8h/12----12h/15---8h/12p\8h/12p\8-|
B|----------------------------------------------------------------------------------|
G|-14---------17----------------------12--------9-------12--------9-----------------|
D|----------------------------------------------------------------------------------|
A|----------------------------------------------------------------------------------|
D|----------------------------------------------------------------------------------|

Guitar 1:
                                                                     .5_______
e|----15h/18---------------15h/18--------------------10-----10--12--12b~~~~~~~(12)\-|
B|--------------11h/15----------------11h/15--11--13-----13-------------------------|
G|-15-------------------15----------------------------------------------------------|
D|-----------12--------------------12-----------------------------------------------|
A|----------------------------------------------------------------------------------|
D|----------------------------------------------------------------------------------|

Guitar 1:
                                                                           1______
e|-12h/15-----13~~~~~~---------------------------------------------15-17-18b------(18)-|
B|-----------------------------------------------15-17-18-15-17-18---------------------|
G|--------------------------------------14-15-17---------------------------------------|
D|-----------------------------14-15-17------------------------------------------------|
A|--------------------13-15-17---------------------------------------------------------|
D|-------------------------------------------------------------------------------------|

Guitar 1:
     1__________                     1_________
e|-18b----------(18)--17~~~~~~~~~~---------------------------------|
B|---------------------------------20b---------(20)---18~~~~~~~~~~~|
G|-----------------------------------------------------------------|
D|-----------------------------------------------------------------|
A|-----------------------------------------------------------------|
D|-----------------------------------------------------------------|

Guitar 1:
                       1________________________________
e|------------------------------------------------------------|
B|----------13-15-16-16b~~~~~~~~~~~~~~~~~~~~~~~~~~~~~~~~(16)\-|
G|----14-15---------------------------------------------------|
D|-15---------------------------------------------------------|
A|------------------------------------------------------------|
D|------------------------------------------------------------|


Please Rate and Comment This Tab.
[travis]
Related for Lost tab
×
Lost